  0
SECTION
  2
HEADER
  9
$ACADVER
  1
AC1009
  9
$LUNITS
 70
2
  9
$LUPREC
 70
4
  9
$LTSCALE
 40
1.0
  9
$EXTMIN
 10
33.3816
 20
-261.0556
 30
0
  9
$EXTMAX
 10
375.6769
 20
-10.5833
 30
0
  0
ENDSEC
  0
SECTION
  2
TABLES
  0
TABLE
  2
LTYPE
 70
256
  0
ENDTAB
  0
TABLE
  2
LAYER
 70
1
  0
LAYER
  2
LAYER_1
 70
64
 62
7
  6
CONTINUOUS
  0
ENDTAB
  0
TABLE
  2
STYLE
 70
6
  0
STYLE
  2
STANDARD
 70
0
 40
0
 50
0
 71
0
 41
0
 42
0
  3
TXT
  4
BIGFONT
  0
ENDTAB
  0
ENDSEC
  0
SECTION
  2
BLOCKS
  0
BLOCK
  8
LAYER_1
  2
AIGNBL01020016
 70
64
 10
0
 20
0
 30
0
  3
AIGNBL01020016
  0
POLYLINE
  8
LAYER_1
 40
0.05
 41
0.05
 62
39
 66
1
 10
0
 20
0
 30
0
  0
VERTEX
  8
LAYER_1
 10
134.4299
 20
-132.9936
 42
0.1227487422
  0
VERTEX
  8
LAYER_1
 10
134.5415
 20
-133.4352
 42
0.1288560703
  0
VERTEX
  8
LAYER_1
 10
134.8234
 20
-133.7535
 42
0.1413432876
  0
VERTEX
  8
LAYER_1
 10
135.2867
 20
-133.8634
 42
0.2113993526
  0
VERTEX
  8
LAYER_1
 10
135.8823
 20
-133.637
 42
0.1895141245
  0
VERTEX
  8
LAYER_1
 10
136.0827
 20
-133.0196
 42
0.1860642954
  0
VERTEX
  8
LAYER_1
 10
135.8848
 20
-132.4278
 42
0.1736717377
  0
VERTEX
  8
LAYER_1
 10
135.4687
 20
-132.225
 42
0.04943667683
  0
VERTEX
  8
LAYER_1
 10
135.267
 20
-132.2106
 42
0.1871797142
  0
VERTEX
  8
LAYER_1
 10
134.6732
 20
-132.4278
 42
0.2234477866
  0
VERTEX
  8
LAYER_1
 10
134.4299
 20
-132.9936
  0
SEQEND
  0
POLYLINE
  8
LAYER_1
 40
0.05
 41
0.05
 62
39
 66
1
 10
0
 20
0
 30
0
  0
VERTEX
  8
LAYER_1
 10
136.4958
 20
-131.384
  0
VERTEX
  8
LAYER_1
 10
135.9448
 20
-131.384
 42
0.1419727767
  0
VERTEX
  8
LAYER_1
 10
135.7665
 20
-131.0161
 42
0.1998906064
  0
VERTEX
  8
LAYER_1
 10
135.3014
 20
-130.8329
 42
0.1039477497
  0
VERTEX
  8
LAYER_1
 10
134.8406
 20
-130.9386
 42
0.08921790289
  0
VERTEX
  8
LAYER_1
 10
134.5612
 20
-131.3408
 42
0.1038602875
  0
VERTEX
  8
LAYER_1
 10
134.4299
 20
-132.2106
 42
-0.1328542655
  0
VERTEX
  8
LAYER_1
 10
134.8736
 20
-131.795
 42
-0.1209876963
  0
VERTEX
  8
LAYER_1
 10
135.4239
 20
-131.6595
 42
-0.2122038082
  0
VERTEX
  8
LAYER_1
 10
136.2807
 20
-132.0337
 42
-0.1995343322
  0
VERTEX
  8
LAYER_1
 10
136.6334
 20
-132.9999
 42
-0.1186432609
  0
VERTEX
  8
LAYER_1
 10
136.4636
 20
-133.7233
 42
-0.1415971612
  0
VERTEX
  8
LAYER_1
 10
135.9964
 20
-134.2357
 42
-0.1387226833
  0
VERTEX
  8
LAYER_1
 10
135.3274
 20
-134.4141
 42
-0.2168135789
  0
VERTEX
  8
LAYER_1
 10
134.2836
 20
-133.9578
 42
-0.116180253
  0
VERTEX
  8
LAYER_1
 10
133.98
 20
-133.3524
 42
-0.06359244718
  0
VERTEX
  8
LAYER_1
 10
133.8789
 20
-132.4513
 42
-0.07141449503
  0
VERTEX
  8
LAYER_1
 10
134.0133
 20
-131.3467
 42
-0.1004951075
  0
VERTEX
  8
LAYER_1
 10
134.3155
 20
-130.7445
 42
-0.2328466874
  0
VERTEX
  8
LAYER_1
 10
135.34
 20
-130.2822
 42
-0.1940236657
  0
VERTEX
  8
LAYER_1
 10
136.128
 20
-130.5771
 42
-0.1830268915
  0
VERTEX
  8
LAYER_1
 10
136.4958
 20
-131.384
  0
SEQEND
  0
ENDBLK
  0
BLOCK
  8
LAYER_1
  2
AIGNBL01020017
 70
64
 10
0
 20
0
 30
0
  3
AIGNBL01020017
  0
POLYLINE
  8
LAYER_1
 40
0.05
 41
0.05
 62
39
 66
1
 10
0
 20
0
 30
0
  0
VERTEX
  8
LAYER_1
 10
140.9491
 20
-132.3481
 42
0.07634315462
  0
VERTEX
  8
LAYER_1
 10
141.0613
 20
-133.3887
 42
0.1039576203
  0
VERTEX
  8
LAYER_1
 10
141.1663
 20
-133.5963
 42
0.2287368511
  0
VERTEX
  8
LAYER_1
 10
141.7065
 20
-133.8634
 42
0.2365621566
  0
VERTEX
  8
LAYER_1
 10
142.2442
 20
-133.5942
 42
0.1340326731
  0
VERTEX
  8
LAYER_1
 10
142.429
 20
-133.0144
 42
0.02632196737
  0
VERTEX
  8
LAYER_1
 10
142.4639
 20
-132.3481
 42
0.07725813135
  0
VERTEX
  8
LAYER_1
 10
142.3499
 20
-131.3225
 42
0.04029693918
  0
VERTEX
  8
LAYER_1
 10
142.2614
 20
-131.1344
 42
0.2687725027
  0
VERTEX
  8
LAYER_1
 10
141.7002
 20
-130.8329
 42
0.2266831343
  0
VERTEX
  8
LAYER_1
 10
141.1554
 20
-131.0955
 42
0.108890623
  0
VERTEX
  8
LAYER_1
 10
140.9713
 20
-131.811
 42
0.03407470566
  0
VERTEX
  8
LAYER_1
 10
140.9491
 20
-132.3481
  0
SEQEND
  0
POLYLINE
  8
LAYER_1
 40
0.05
 41
0.05
 62
39
 66
1
 10
0
 20
0
 30
0
  0
VERTEX
  8
LAYER_1
 10
140.398
 20
-132.3481
 42
-0.07369087512
  0
VERTEX
  8
LAYER_1
 10
140.5444
 20
-131.1601
 42
-0.1590689487
  0
VERTEX
  8
LAYER_1
 10
140.9789
 20
-130.4865
 42
-0.1599877872
  0
VERTEX
  8
LAYER_1
 10
141.7065
 20
-130.2822
 42
-0.1123367625
  0
VERTEX
  8
LAYER_1
 10
142.3067
 20
-130.4135
 42
-0.1700706916
  0
VERTEX
  8
LAYER_1
 10
142.7096
 20
-130.7922
 42
-0.05355193978
  0
VERTEX
  8
LAYER_1
 10
142.9248
 20
-131.3949
 42
-0.05844460228
  0
VERTEX
  8
LAYER_1
 10
143.015
 20
-132.3481
 42
-0.07382127631
  0
VERTEX
  8
LAYER_1
 10
142.8686
 20
-133.5338
 42
-0.1594457704
  0
VERTEX
  8
LAYER_1
 10
142.4358
 20
-134.2098
 42
-0.1602257439
  0
VERTEX
  8
LAYER_1
 10
141.7065
 20
-134.4141
 42
-0.1201788096
  0
VERTEX
  8
LAYER_1
 10
141.0777
 20
-134.2771
 42
-0.08433833513
  0
VERTEX
  8
LAYER_1
 10
140.7939
 20
-134.0634
 42
-0.09648092445
  0
VERTEX
  8
LAYER_1
 10
140.4909
 20
-133.3203
 42
-0.05267956383
  0
VERTEX
  8
LAYER_1
 10
140.398
 20
-132.3481
  0
SEQEND
  0
ENDBLK
  0
BLOCK
  8
LAYER_1
  2
AIGNBL01020018
 70
64
 10
0
 20
0
 30
0
  3
AIGNBL01020018
  0
POLYLINE
  8
LAYER_1
 40
0.05
 41
0.05
 62
39
 66
1
 10
0
 20
0
 30
0
 70
1
  0
VERTEX
  8
LAYER_1
 10
372.9518
 20
-168.4906
  0
VERTEX
  8
LAYER_1
 10
374.8212
 20
-168.4906
  0
VERTEX
  8
LAYER_1
 10
372.9518
 20
-167.3026
  0
SEQEND
  0
POLYLINE
  8
LAYER_1
 40
0.05
 41
0.05
 62
39
 66
1
 10
0
 20
0
 30
0
 70
1
  0
VERTEX
  8
LAYER_1
 10
371.4658
 20
-168.4906
  0
VERTEX
  8
LAYER_1
 10
372.4566
 20
-168.4906
  0
VERTEX
  8
LAYER_1
 10
372.4566
 20
-166.7568
  0
VERTEX
  8
LAYER_1
 10
372.9518
 20
-166.7568
  0
VERTEX
  8
LAYER_1
 10
375.6769
 20
-168.4906
  0
VERTEX
  8
LAYER_1
 10
375.6769
 20
-168.9862
  0
VERTEX
  8
LAYER_1
 10
372.9518
 20
-168.9862
  0
VERTEX
  8
LAYER_1
 10
372.9518
 20
-169.4815
  0
VERTEX
  8
LAYER_1
 10
372.4566
 20
-169.4815
  0
VERTEX
  8
LAYER_1
 10
372.4566
 20
-168.9862
  0
VERTEX
  8
LAYER_1
 10
371.4658
 20
-168.9862
  0
SEQEND
  0
ENDBLK
  0
BLOCK
  8
LAYER_1
  2
AIGNBL01020019
 70
64
 10
0
 20
0
 30
0
  3
AIGNBL01020019
  0
POLYLINE
  8
LAYER_1
 40
0.05
 41
0.05
 62
39
 66
1
 10
0
 20
0
 30
0
  0
VERTEX
  8
LAYER_1
 10
234.3589
 20
-132.537
 42
0.07638536743
  0
VERTEX
  8
LAYER_1
 10
234.4711
 20
-133.5775
 42
0.1040794424
  0
VERTEX
  8
LAYER_1
 10
234.5762
 20
-133.7851
 42
0.2289349342
  0
VERTEX
  8
LAYER_1
 10
235.1164
 20
-134.0522
 42
0.2365621566
  0
VERTEX
  8
LAYER_1
 10
235.6541
 20
-133.783
 42
0.1339832719
  0
VERTEX
  8
LAYER_1
 10
235.8389
 20
-133.2033
 42
0.02634355475
  0
VERTEX
  8
LAYER_1
 10
235.8738
 20
-132.537
 42
0.07725123337
  0
VERTEX
  8
LAYER_1
 10
235.7598
 20
-131.5114
 42
0.04025735933
  0
VERTEX
  8
LAYER_1
 10
235.6713
 20
-131.3233
 42
0.268808607
  0
VERTEX
  8
LAYER_1
 10
235.11
 20
-131.0218
 42
0.2267032982
  0
VERTEX
  8
LAYER_1
 10
234.5653
 20
-131.2844
 42
0.1089998973
  0
VERTEX
  8
LAYER_1
 10
234.3811
 20
-131.9999
 42
0.03408792737
  0
VERTEX
  8
LAYER_1
 10
234.3589
 20
-132.537
  0
SEQEND
  0
POLYLINE
  8
LAYER_1
 40
0.05
 41
0.05
 62
39
 66
1
 10
0
 20
0
 30
0
  0
VERTEX
  8
LAYER_1
 10
233.8079
 20
-132.537
 42
-0.07360595032
  0
VERTEX
  8
LAYER_1
 10
233.9542
 20
-131.3489
 42
-0.1591133089
  0
VERTEX
  8
LAYER_1
 10
234.3888
 20
-130.6754
 42
-0.1600153501
  0
VERTEX
  8
LAYER_1
 10
235.1164
 20
-130.4711
 42
-0.112480086
  0
VERTEX
  8
LAYER_1
 10
235.7165
 20
-130.6024
 42
-0.1700413432
  0
VERTEX
  8
LAYER_1
 10
236.1195
 20
-130.9811
 42
-0.05366550416
  0
VERTEX
  8
LAYER_1
 10
236.3346
 20
-131.5838
 42
-0.05851299375
  0
VERTEX
  8
LAYER_1
 10
236.4248
 20
-132.537
 42
-0.07375191475
  0
VERTEX
  8
LAYER_1
 10
236.2785
 20
-133.7227
 42
-0.1593838806
  0
VERTEX
  8
LAYER_1
 10
235.8457
 20
-134.3987
 42
-0.1600443507
  0
VERTEX
  8
LAYER_1
 10
235.1164
 20
-134.6029
 42
-0.1201341502
  0
VERTEX
  8
LAYER_1
 10
234.4875
 20
-134.466
 42
-0.08444328044
  0
VERTEX
  8
LAYER_1
 10
234.2038
 20
-134.2523
 42
-0.09653806656
  0
VERTEX
  8
LAYER_1
 10
233.9008
 20
-133.5092
 42
-0.0526661934
  0
VERTEX
  8
LAYER_1
 10
233.8079
 20
-132.537
  0
SEQEND
  0
ENDBLK
  0
BLOCK
  8
LAYER_1
  2
AIGNBL0102001A
 70
64
 10
0
 20
0
 30
0
  3
AIGNBL0102001A
  0
POLYLINE
  8
LAYER_1
 40
0.05
 41
0.05
 62
39
 66
1
 10
0
 20
0
 30
0
 70
1
  0
VERTEX
  8
LAYER_1
 10
238.5137
 20
-133.0878
  0
VERTEX
  8
LAYER_1
 10
238.5137
 20
-131.5986
  0
VERTEX
  8
LAYER_1
 10
237.4955
 20
-133.0878
  0
SEQEND
  0
POLYLINE
  8
LAYER_1
 40
0.05
 41
0.05
 62
39
 66
1
 10
0
 20
0
 30
0
 70
1
  0
VERTEX
  8
LAYER_1
 10
238.5137
 20
-134.603
  0
VERTEX
  8
LAYER_1
 10
238.5137
 20
-133.6389
  0
VERTEX
  8
LAYER_1
 10
236.8609
 20
-133.6389
  0
VERTEX
  8
LAYER_1
 10
236.8609
 20
-133.0878
  0
VERTEX
  8
LAYER_1
 10
238.6513
 20
-130.4709
  0
VERTEX
  8
LAYER_1
 10
239.0647
 20
-130.4709
  0
VERTEX
  8
LAYER_1
 10
239.0647
 20
-133.0878
  0
VERTEX
  8
LAYER_1
 10
239.6154
 20
-133.0878
  0
VERTEX
  8
LAYER_1
 10
239.6154
 20
-133.6389
  0
VERTEX
  8
LAYER_1
 10
239.0647
 20
-133.6389
  0
VERTEX
  8
LAYER_1
 10
239.0647
 20
-134.603
  0
SEQEND
  0
ENDBLK
  0
BLOCK
  8
LAYER_1
  2
AIGNBL0102001B
 70
64
 10
0
 20
0
 30
0
  3
AIGNBL0102001B
  0
POLYLINE
  8
LAYER_1
 40
0.05
 41
0.05
 62
39
 66
1
 10
0
 20
0
 30
0
  0
VERTEX
  8
LAYER_1
 10
329.0244
 20
-132.9587
 42
0.1228229349
  0
VERTEX
  8
LAYER_1
 10
329.136
 20
-133.4002
 42
0.1290732731
  0
VERTEX
  8
LAYER_1
 10
329.4178
 20
-133.7186
 42
0.1412877597
  0
VERTEX
  8
LAYER_1
 10
329.8811
 20
-133.8284
 42
0.2115228329
  0
VERTEX
  8
LAYER_1
 10
330.4767
 20
-133.602
 42
0.1896826408
  0
VERTEX
  8
LAYER_1
 10
330.6772
 20
-132.9846
 42
0.1862333784
  0
VERTEX
  8
LAYER_1
 10
330.4792
 20
-132.3929
 42
0.1737497895
  0
VERTEX
  8
LAYER_1
 10
330.0631
 20
-132.19
 42
0.04945439552
  0
VERTEX
  8
LAYER_1
 10
329.8615
 20
-132.1756
 42
0.1872444717
  0
VERTEX
  8
LAYER_1
 10
329.2676
 20
-132.3929
 42
0.2235520861
  0
VERTEX
  8
LAYER_1
 10
329.0244
 20
-132.9587
  0
SEQEND
  0
POLYLINE
  8
LAYER_1
 40
0.05
 41
0.05
 62
39
 66
1
 10
0
 20
0
 30
0
  0
VERTEX
  8
LAYER_1
 10
331.0903
 20
-131.349
  0
VERTEX
  8
LAYER_1
 10
330.5392
 20
-131.349
 42
0.1420457007
  0
VERTEX
  8
LAYER_1
 10
330.3609
 20
-130.9812
 42
0.1999358086
  0
VERTEX
  8
LAYER_1
 10
329.8959
 20
-130.798
 42
0.103769027
  0
VERTEX
  8
LAYER_1
 10
329.435
 20
-130.9036
 42
0.08902165718
  0
VERTEX
  8
LAYER_1
 10
329.1556
 20
-131.3059
 42
0.1039409235
  0
VERTEX
  8
LAYER_1
 10
329.0244
 20
-132.1756
 42
-0.1327958404
  0
VERTEX
  8
LAYER_1
 10
329.468
 20
-131.7601
 42
-0.1209641968
  0
VERTEX
  8
LAYER_1
 10
330.0184
 20
-131.6246
 42
-0.2121446242
  0
VERTEX
  8
LAYER_1
 10
330.8751
 20
-131.9987
 42
-0.1994752827
  0
VERTEX
  8
LAYER_1
 10
331.2279
 20
-132.965
 42
-0.1186001343
  0
VERTEX
  8
LAYER_1
 10
331.058
 20
-133.6884
 42
-0.1415971612
  0
VERTEX
  8
LAYER_1
 10
330.5908
 20
-134.2008
 42
-0.138653569
  0
VERTEX
  8
LAYER_1
 10
329.9218
 20
-134.3791
 42
-0.2168056181
  0
VERTEX
  8
LAYER_1
 10
328.878
 20
-133.9228
 42
-0.1161769544
  0
VERTEX
  8
LAYER_1
 10
328.5744
 20
-133.3174
 42
-0.06359857562
  0
VERTEX
  8
LAYER_1
 10
328.4733
 20
-132.4164
 42
-0.07141677367
  0
VERTEX
  8
LAYER_1
 10
328.6077
 20
-131.3117
 42
-0.1004471567
  0
VERTEX
  8
LAYER_1
 10
328.9099
 20
-130.7095
 42
-0.2327924439
  0
VERTEX
  8
LAYER_1
 10
329.9345
 20
-130.2473
 42
-0.1940364171
  0
VERTEX
  8
LAYER_1
 10
330.7224
 20
-130.5421
 42
-0.182917005
  0
VERTEX
  8
LAYER_1
 10
331.0903
 20
-131.349
  0
SEQEND
  0
ENDBLK
  0
BLOCK
  8
LAYER_1
  2
AIGNBL0102001C
 70
64
 10
0
 20
0
 30
0
  3
AIGNBL0102001C
  0
POLYLINE
  8
LAYER_1
 40
0.05
 41
0.05
 62
39
 66
1
 10
0
 20
0
 30
0
  0
VERTEX
  8
LAYER_1
 10
335.5434
 20
-132.3132
 42
0.07638536743
  0
VERTEX
  8
LAYER_1
 10
335.6556
 20
-133.3537
 42
0.1040794424
  0
VERTEX
  8
LAYER_1
 10
335.7607
 20
-133.5613
 42
0.2288592895
  0
VERTEX
  8
LAYER_1
 10
336.3009
 20
-133.8284
 42
0.2365621566
  0
VERTEX
  8
LAYER_1
 10
336.8386
 20
-133.5592
 42
0.133973861
  0
VERTEX
  8
LAYER_1
 10
337.0234
 20
-132.9795
 42
0.0263451693
  0
VERTEX
  8
LAYER_1
 10
337.0583
 20
-132.3132
 42
0.07725813135
  0
VERTEX
  8
LAYER_1
 10
336.9443
 20
-131.2876
 42
0.04029693918
  0
VERTEX
  8
LAYER_1
 10
336.8558
 20
-131.0995
 42
0.2687901737
  0
VERTEX
  8
LAYER_1
 10
336.2946
 20
-130.798
 42
0.2267086896
  0
VERTEX
  8
LAYER_1
 10
335.7498
 20
-131.0605
 42
0.1089614804
  0
VERTEX
  8
LAYER_1
 10
335.5656
 20
-131.7761
 42
0.03408423766
  0
VERTEX
  8
LAYER_1
 10
335.5434
 20
-132.3132
  0
SEQEND
  0
POLYLINE
  8
LAYER_1
 40
0.05
 41
0.05
 62
39
 66
1
 10
0
 20
0
 30
0
  0
VERTEX
  8
LAYER_1
 10
334.9924
 20
-132.3132
 42
-0.073675183
  0
VERTEX
  8
LAYER_1
 10
335.1388
 20
-131.1251
 42
-0.1592492753
  0
VERTEX
  8
LAYER_1
 10
335.5733
 20
-130.4516
 42
-0.1599877872
  0
VERTEX
  8
LAYER_1
 10
336.3009
 20
-130.2473
 42
-0.1124633968
  0
VERTEX
  8
LAYER_1
 10
336.9011
 20
-130.3786
 42
-0.1696928519
  0
VERTEX
  8
LAYER_1
 10
337.304
 20
-130.7573
 42
-0.05340688032
  0
VERTEX
  8
LAYER_1
 10
337.5192
 20
-131.3599
 42
-0.05843839204
  0
VERTEX
  8
LAYER_1
 10
337.6094
 20
-132.3132
 42
-0.07383702999
  0
VERTEX
  8
LAYER_1
 10
337.463
 20
-133.4988
 42
-0.159482739
  0
VERTEX
  8
LAYER_1
 10
337.0302
 20
-134.1748
 42
-0.1600595822
  0
VERTEX
  8
LAYER_1
 10
336.3009
 20
-134.3791
 42
-0.1201404653
  0
VERTEX
  8
LAYER_1
 10
335.672
 20
-134.2421
 42
-0.08438391348
  0
VERTEX
  8
LAYER_1
 10
335.3883
 20
-134.0285
 42
-0.09648092445
  0
VERTEX
  8
LAYER_1
 10
335.0853
 20
-133.2854
 42
-0.05267956383
  0
VERTEX
  8
LAYER_1
 10
334.9924
 20
-132.3132
  0
SEQEND
  0
ENDBLK
  0
BLOCK
  8
LAYER_1
  2
AIGNBL0102001E
 70
64
 10
0
 20
0
 30
0
  3
AIGNBL0102001E
  0
POLYLINE
  8
LAYER_1
 40
0.05
 41
0.05
 62
39
 66
1
 10
0
 20
0
 30
0
 70
1
  0
VERTEX
  8
LAYER_1
 10
178.6231
 20
-168.4906
  0
VERTEX
  8
LAYER_1
 10
180.4921
 20
-168.4906
  0
VERTEX
  8
LAYER_1
 10
178.6231
 20
-167.3026
  0
SEQEND
  0
POLYLINE
  8
LAYER_1
 40
0.05
 41
0.05
 62
39
 66
1
 10
0
 20
0
 30
0
 70
1
  0
VERTEX
  8
LAYER_1
 10
177.1367
 20
-168.4906
  0
VERTEX
  8
LAYER_1
 10
178.1275
 20
-168.4906
  0
VERTEX
  8
LAYER_1
 10
178.1275
 20
-166.7568
  0
VERTEX
  8
LAYER_1
 10
178.6231
 20
-166.7568
  0
VERTEX
  8
LAYER_1
 10
181.3478
 20
-168.4906
  0
VERTEX
  8
LAYER_1
 10
181.3478
 20
-168.9862
  0
VERTEX
  8
LAYER_1
 10
178.6231
 20
-168.9862
  0
VERTEX
  8
LAYER_1
 10
178.6231
 20
-169.4815
  0
VERTEX
  8
LAYER_1
 10
178.1275
 20
-169.4815
  0
VERTEX
  8
LAYER_1
 10
178.1275
 20
-168.9862
  0
VERTEX
  8
LAYER_1
 10
177.1367
 20
-168.9862
  0
SEQEND
  0
ENDBLK
  0
BLOCK
  8
LAYER_1
  2
AIGNBL01010002
 70
64
 10
0
 20
0
 30
0
  3
AIGNBL01010002
  0
POLYLINE
  8
LAYER_1
 40
0.254
 41
0.254
 66
1
 10
0
 20
0
 30
0
  0
VERTEX
  8
LAYER_1
 10
187.3166
 20
-194.1833
  0
VERTEX
  8
LAYER_1
 10
200.6762
 20
-194.1833
  0
SEQEND
  0
POLYLINE
  8
LAYER_1
 40
0.254
 41
0.254
 66
1
 10
0
 20
0
 30
0
  0
VERTEX
  8
LAYER_1
 10
287.3073
 20
-195.4227
  0
VERTEX
  8
LAYER_1
 10
187.3166
 20
-195.4227
  0
SEQEND
  0
POLYLINE
  8
LAYER_1
 40
0.254
 41
0.254
 66
1
 10
0
 20
0
 30
0
  0
VERTEX
  8
LAYER_1
 10
288.4091
 20
-197.213
  0
VERTEX
  8
LAYER_1
 10
186.3524
 20
-197.213
  0
SEQEND
  0
POLYLINE
  8
LAYER_1
 40
0.254
 41
0.254
 66
1
 10
0
 20
0
 30
0
  0
VERTEX
  8
LAYER_1
 10
289.0977
 20
-196.2492
  0
VERTEX
  8
LAYER_1
 10
289.0977
 20
-136.7505
  0
SEQEND
  0
POLYLINE
  8
LAYER_1
 40
0.254
 41
0.254
 66
1
 10
0
 20
0
 30
0
  0
VERTEX
  8
LAYER_1
 10
185.5262
 20
-149.6971
  0
VERTEX
  8
LAYER_1
 10
185.5262
 20
-136.7505
  0
SEQEND
  0
POLYLINE
  8
LAYER_1
 40
0.254
 41
0.254
 66
1
 10
0
 20
0
 30
0
  0
VERTEX
  8
LAYER_1
 10
287.3073
 20
-136.7505
  0
VERTEX
  8
LAYER_1
 10
187.3166
 20
-136.7505
  0
SEQEND
  0
POLYLINE
  8
LAYER_1
 40
0.254
 41
0.254
 66
1
 10
0
 20
0
 30
0
  0
VERTEX
  8
LAYER_1
 10
185.5262
 20
-260.2297
  0
VERTEX
  8
LAYER_1
 10
185.8014
 20
-260.7807
  0
VERTEX
  8
LAYER_1
 10
186.3524
 20
-261.0556
  0
SEQEND
  0
POLYLINE
  8
LAYER_1
 40
0.254
 41
0.254
 66
1
 10
0
 20
0
 30
0
  0
VERTEX
  8
LAYER_1
 10
186.3524
 20
-206.378
  0
VERTEX
  8
LAYER_1
 10
185.8014
 20
-206.6535
  0
VERTEX
  8
LAYER_1
 10
185.5262
 20
-207.2042
  0
SEQEND
  0
POLYLINE
  8
LAYER_1
 40
0.254
 41
0.254
 66
1
 10
0
 20
0
 30
0
  0
VERTEX
  8
LAYER_1
 10
185.5262
 20
-260.2297
  0
VERTEX
  8
LAYER_1
 10
185.5262
 20
-207.2042
  0
SEQEND
  0
POLYLINE
  8
LAYER_1
 40
0.254
 41
0.254
 66
1
 10
0
 20
0
 30
0
  0
VERTEX
  8
LAYER_1
 10
288.4091
 20
-261.0556
  0
VERTEX
  8
LAYER_1
 10
288.9601
 20
-260.7807
  0
VERTEX
  8
LAYER_1
 10
289.0977
 20
-260.2297
  0
SEQEND
  0
POLYLINE
  8
LAYER_1
 40
0.254
 41
0.254
 66
1
 10
0
 20
0
 30
0
  0
VERTEX
  8
LAYER_1
 10
289.0977
 20
-260.2297
  0
VERTEX
  8
LAYER_1
 10
289.0977
 20
-207.2042
  0
VERTEX
  8
LAYER_1
 10
288.9601
 20
-206.6535
  0
VERTEX
  8
LAYER_1
 10
288.4091
 20
-206.378
  0
SEQEND
  0
POLYLINE
  8
LAYER_1
 40
0.254
 41
0.254
 66
1
 10
0
 20
0
 30
0
  0
VERTEX
  8
LAYER_1
 10
288.4091
 20
-261.0556
  0
VERTEX
  8
LAYER_1
 10
186.3524
 20
-261.0556
  0
SEQEND
  0
POLYLINE
  8
LAYER_1
 40
0.254
 41
0.254
 66
1
 10
0
 20
0
 30
0
  0
VERTEX
  8
LAYER_1
 10
186.3524
 20
-206.378
  0
VERTEX
  8
LAYER_1
 10
288.4091
 20
-206.378
  0
SEQEND
  0
ENDBLK
  0
BLOCK
  8
LAYER_1
  2
AIGNBL01010003
 70
64
 10
0
 20
0
 30
0
  3
AIGNBL01010003
  0
POLYLINE
  8
LAYER_1
 40
0.254
 41
0.254
 66
1
 10
0
 20
0
 30
0
  0
VERTEX
  8
LAYER_1
 10
188.5563
 20
-156.7211
  0
VERTEX
  8
LAYER_1
 10
188.5563
 20
-182.0624
  0
SEQEND
  0
POLYLINE
  8
LAYER_1
 40
0.254
 41
0.254
 66
1
 10
0
 20
0
 30
0
  0
VERTEX
  8
LAYER_1
 10
185.5262
 20
-196.3869
  0
VERTEX
  8
LAYER_1
 10
185.5262
 20
-144.1877
  0
SEQEND
  0
POLYLINE
  8
LAYER_1
 40
0.254
 41
0.254
 66
1
 10
0
 20
0
 30
0
  0
VERTEX
  8
LAYER_1
 10
187.3166
 20
-195.4228
  0
VERTEX
  8
LAYER_1
 10
187.3166
 20
-145.1519
  0
SEQEND
  0
POLYLINE
  8
LAYER_1
 40
0.254
 41
0.254
 66
1
 10
0
 20
0
 30
0
  0
VERTEX
  8
LAYER_1
 10
169.8251
 20
-144.1877
  0
VERTEX
  8
LAYER_1
 10
169.8251
 20
-196.3869
  0
SEQEND
  0
POLYLINE
  8
LAYER_1
 40
0.254
 41
0.254
 66
1
 10
0
 20
0
 30
0
  0
VERTEX
  8
LAYER_1
 10
169.1365
 20
-197.2131
  0
VERTEX
  8
LAYER_1
 10
174.7832
 20
-197.2131
  0
SEQEND
  0
POLYLINE
  8
LAYER_1
 40
0.254
 41
0.254
 66
1
 10
0
 20
0
 30
0
  0
VERTEX
  8
LAYER_1
 10
169.1365
 20
-143.3615
  0
VERTEX
  8
LAYER_1
 10
174.7832
 20
-143.3615
  0
SEQEND
  0
POLYLINE
  8
LAYER_1
 40
0.254
 41
0.254
 66
1
 10
0
 20
0
 30
0
  0
VERTEX
  8
LAYER_1
 10
174.7832
 20
-195.4228
  0
VERTEX
  8
LAYER_1
 10
174.7832
 20
-145.1519
  0
SEQEND
  0
POLYLINE
  8
LAYER_1
 40
0.254
 41
0.254
 66
1
 10
0
 20
0
 30
0
  0
VERTEX
  8
LAYER_1
 10
147.6508
 20
-176.4161
  0
VERTEX
  8
LAYER_1
 10
147.7884
 20
-177.2427
  0
VERTEX
  8
LAYER_1
 10
148.3394
 20
-177.7934
  0
VERTEX
  8
LAYER_1
 10
149.1656
 20
-178.0689
  0
SEQEND
  0
POLYLINE
  8
LAYER_1
 40
0.254
 41
0.254
 66
1
 10
0
 20
0
 30
0
  0
VERTEX
  8
LAYER_1
 10
161.699
 20
-178.0689
  0
VERTEX
  8
LAYER_1
 10
162.3877
 20
-177.7934
  0
VERTEX
  8
LAYER_1
 10
163.0763
 20
-177.2427
  0
VERTEX
  8
LAYER_1
 10
163.2139
 20
-176.4161
  0
SEQEND
  0
POLYLINE
  8
LAYER_1
 40
0.254
 41
0.254
 66
1
 10
0
 20
0
 30
0
  0
VERTEX
  8
LAYER_1
 10
125.752
 20
-178.0689
  0
VERTEX
  8
LAYER_1
 10
126.5782
 20
-177.7934
  0
VERTEX
  8
LAYER_1
 10
127.1292
 20
-177.2427
  0
VERTEX
  8
LAYER_1
 10
127.4048
 20
-176.4161
  0
SEQEND
  0
POLYLINE
  8
LAYER_1
 40
0.254
 41
0.254
 66
1
 10
0
 20
0
 30
0
  0
VERTEX
  8
LAYER_1
 10
111.842
 20
-176.4161
  0
VERTEX
  8
LAYER_1
 10
111.9792
 20
-177.2427
  0
VERTEX
  8
LAYER_1
 10
112.5299
 20
-177.7934
  0
VERTEX
  8
LAYER_1
 10
113.3565
 20
-178.0689
  0
SEQEND
  0
POLYLINE
  8
LAYER_1
 40
0.254
 41
0.254
 66
1
 10
0
 20
0
 30
0
  0
VERTEX
  8
LAYER_1
 10
200.6762
 20
-194.1831
  0
VERTEX
  8
LAYER_1
 10
226.0189
 20
-194.1831
  0
SEQEND
  0
POLYLINE
  8
LAYER_1
 40
0.254
 41
0.254
 66
1
 10
0
 20
0
 30
0
  0
VERTEX
  8
LAYER_1
 10
238.2761
 20
-194.1831
  0
VERTEX
  8
LAYER_1
 10
250.396
 20
-194.1831
  0
SEQEND
  0
POLYLINE
  8
LAYER_1
 40
0.254
 41
0.254
 66
1
 10
0
 20
0
 30
0
  0
VERTEX
  8
LAYER_1
 10
226.0189
 20
-194.1831
  0
VERTEX
  8
LAYER_1
 10
236.4857
 20
-194.1831
  0
SEQEND
  0
POLYLINE
  8
LAYER_1
 40
0.254
 41
0.254
 66
1
 10
0
 20
0
 30
0
  0
VERTEX
  8
LAYER_1
 10
288.409
 20
-197.2131
  0
VERTEX
  8
LAYER_1
 10
288.9601
 20
-196.9373
  0
VERTEX
  8
LAYER_1
 10
289.0977
 20
-196.3869
  0
SEQEND
  0
POLYLINE
  8
LAYER_1
 40
0.254
 41
0.254
 66
1
 10
0
 20
0
 30
0
  0
VERTEX
  8
LAYER_1
 10
286.2055
 20
-194.1831
  0
VERTEX
  8
LAYER_1
 10
286.2055
 20
-182.0624
  0
SEQEND
  0
POLYLINE
  8
LAYER_1
 40
0.254
 41
0.254
 66
1
 10
0
 20
0
 30
0
  0
VERTEX
  8
LAYER_1
 10
250.396
 20
-194.1831
  0
VERTEX
  8
LAYER_1
 10
275.738
 20
-194.1831
  0
VERTEX
  8
LAYER_1
 10
287.3073
 20
-194.1831
  0
SEQEND
  0
POLYLINE
  8
LAYER_1
 40
0.254
 41
0.254
 66
1
 10
0
 20
0
 30
0
 70
1
  0
VERTEX
  8
LAYER_1
 10
240.6175
 20
-170.2184
  0
VERTEX
  8
LAYER_1
 10
240.6175
 20
-170.0808
  0
VERTEX
  8
LAYER_1
 10
240.3424
 20
-169.9428
  0
VERTEX
  8
LAYER_1
 10
240.2041
 20
-170.0808
  0
VERTEX
  8
LAYER_1
 10
240.0665
 20
-170.2184
  0
VERTEX
  8
LAYER_1
 10
240.2041
 20
-170.4939
  0
VERTEX
  8
LAYER_1
 10
240.3424
 20
-170.6315
  0
VERTEX
  8
LAYER_1
 10
240.6175
 20
-170.4939
  0
SEQEND
  0
POLYLINE
  8
LAYER_1
 40
0.254
 41
0.254
 66
1
 10
0
 20
0
 30
0
  0
VERTEX
  8
LAYER_1
 10
226.0189
 20
-146.3916
  0
VERTEX
  8
LAYER_1
 10
199.0241
 20
-146.3916
  0
SEQEND
  0
POLYLINE
  8
LAYER_1
 40
0.254
 41
0.254
 66
1
 10
0
 20
0
 30
0
  0
VERTEX
  8
LAYER_1
 10
248.7432
 20
-146.3916
  0
VERTEX
  8
LAYER_1
 10
238.2761
 20
-146.3916
  0
SEQEND
  0
POLYLINE
  8
LAYER_1
 40
0.254
 41
0.254
 66
1
 10
0
 20
0
 30
0
  0
VERTEX
  8
LAYER_1
 10
236.4857
 20
-146.3916
  0
VERTEX
  8
LAYER_1
 10
226.0189
 20
-146.3916
  0
SEQEND
  0
POLYLINE
  8
LAYER_1
 40
0.254
 41
0.254
 66
1
 10
0
 20
0
 30
0
  0
VERTEX
  8
LAYER_1
 10
289.0977
 20
-144.1877
  0
VERTEX
  8
LAYER_1
 10
288.9601
 20
-143.637
  0
VERTEX
  8
LAYER_1
 10
288.409
 20
-143.3615
  0
SEQEND
  0
POLYLINE
  8
LAYER_1
 40
0.254
 41
0.254
 66
1
 10
0
 20
0
 30
0
  0
VERTEX
  8
LAYER_1
 10
289.0977
 20
-144.1877
  0
VERTEX
  8
LAYER_1
 10
289.0977
 20
-196.3869
  0
SEQEND
  0
POLYLINE
  8
LAYER_1
 40
0.254
 41
0.254
 66
1
 10
0
 20
0
 30
0
  0
VERTEX
  8
LAYER_1
 10
287.3073
 20
-195.4228
  0
VERTEX
  8
LAYER_1
 10
287.3073
 20
-145.1519
  0
SEQEND
  0
POLYLINE
  8
LAYER_1
 40
0.254
 41
0.254
 66
1
 10
0
 20
0
 30
0
  0
VERTEX
  8
LAYER_1
 10
275.738
 20
-146.3916
  0
VERTEX
  8
LAYER_1
 10
248.7432
 20
-146.3916
  0
SEQEND
  0
POLYLINE
  8
LAYER_1
 40
0.254
 41
0.254
 66
1
 10
0
 20
0
 30
0
  0
VERTEX
  8
LAYER_1
 10
286.2055
 20
-158.5115
  0
VERTEX
  8
LAYER_1
 10
286.2055
 20
-146.3916
  0
SEQEND
  0
POLYLINE
  8
LAYER_1
 40
0.254
 41
0.254
 66
1
 10
0
 20
0
 30
0
  0
VERTEX
  8
LAYER_1
 10
287.3073
 20
-146.3916
  0
VERTEX
  8
LAYER_1
 10
275.738
 20
-146.3916
  0
SEQEND
  0
POLYLINE
  8
LAYER_1
 40
0.254
 41
0.254
 66
1
 10
0
 20
0
 30
0
 70
1
  0
VERTEX
  8
LAYER_1
 10
283.3131
 20
-170.2184
  0
VERTEX
  8
LAYER_1
 10
283.0379
 20
-166.9131
  0
VERTEX
  8
LAYER_1
 10
282.3496
 20
-163.7451
  0
VERTEX
  8
LAYER_1
 10
280.972
 20
-160.715
  0
VERTEX
  8
LAYER_1
 10
279.3192
 20
-157.8229
  0
VERTEX
  8
LAYER_1
 10
277.116
 20
-155.3439
  0
VERTEX
  8
LAYER_1
 10
274.6363
 20
-153.14
  0
VERTEX
  8
LAYER_1
 10
271.7442
 20
-151.4872
  0
VERTEX
  8
LAYER_1
 10
268.7141
 20
-150.1099
  0
VERTEX
  8
LAYER_1
 10
265.5461
 20
-149.4213
  0
VERTEX
  8
LAYER_1
 10
262.2412
 20
-149.1461
  0
VERTEX
  8
LAYER_1
 10
258.9352
 20
-149.4213
  0
VERTEX
  8
LAYER_1
 10
255.6296
 20
-150.1099
  0
VERTEX
  8
LAYER_1
 10
252.5999
 20
-151.4872
  0
VERTEX
  8
LAYER_1
 10
249.7081
 20
-153.14
  0
VERTEX
  8
LAYER_1
 10
247.2291
 20
-155.3439
  0
VERTEX
  8
LAYER_1
 10
245.1625
 20
-157.8229
  0
VERTEX
  8
LAYER_1
 10
243.3724
 20
-160.715
  0
VERTEX
  8
LAYER_1
 10
242.1331
 20
-163.7451
  0
VERTEX
  8
LAYER_1
 10
241.3062
 20
-166.9131
  0
VERTEX
  8
LAYER_1
 10
241.031
 20
-170.2184
  0
VERTEX
  8
LAYER_1
 10
241.3062
 20
-173.524
  0
VERTEX
  8
LAYER_1
 10
242.1331
 20
-176.8296
  0
VERTEX
  8
LAYER_1
 10
243.3724
 20
-179.8593
  0
VERTEX
  8
LAYER_1
 10
245.1625
 20
-182.7518
  0
VERTEX
  8
LAYER_1
 10
247.2291
 20
-185.2308
  0
VERTEX
  8
LAYER_1
 10
249.7081
 20
-187.4346
  0
VERTEX
  8
LAYER_1
 10
252.5999
 20
-189.0871
  0
VERTEX
  8
LAYER_1
 10
255.6296
 20
-190.3268
  0
VERTEX
  8
LAYER_1
 10
258.9352
 20
-191.153
  0
VERTEX
  8
LAYER_1
 10
262.2412
 20
-191.4285
  0
VERTEX
  8
LAYER_1
 10
265.5461
 20
-191.153
  0
VERTEX
  8
LAYER_1
 10
268.7141
 20
-190.3268
  0
VERTEX
  8
LAYER_1
 10
271.7442
 20
-189.0871
  0
VERTEX
  8
LAYER_1
 10
274.6363
 20
-187.4346
  0
VERTEX
  8
LAYER_1
 10
277.116
 20
-185.2308
  0
VERTEX
  8
LAYER_1
 10
279.3192
 20
-182.7518
  0
VERTEX
  8
LAYER_1
 10
280.972
 20
-179.8593
  0
VERTEX
  8
LAYER_1
 10
282.3496
 20
-176.8296
  0
VERTEX
  8
LAYER_1
 10
283.0379
 20
-173.524
  0
SEQEND
  0
POLYLINE
  8
LAYER_1
 40
0.254
 41
0.254
 66
1
 10
0
 20
0
 30
0
  0
VERTEX
  8
LAYER_1
 10
286.2055
 20
-182.0624
  0
VERTEX
  8
LAYER_1
 10
286.2055
 20
-158.5115
  0
SEQEND
  0
POLYLINE
  8
LAYER_1
 40
0.254
 41
0.254
 66
1
 10
0
 20
0
 30
0
 70
1
  0
VERTEX
  8
LAYER_1
 10
233.5932
 20
-170.2184
  0
VERTEX
  8
LAYER_1
 10
233.3177
 20
-166.9131
  0
VERTEX
  8
LAYER_1
 10
232.6298
 20
-163.7451
  0
VERTEX
  8
LAYER_1
 10
231.3897
 20
-160.715
  0
VERTEX
  8
LAYER_1
 10
229.599
 20
-157.8229
  0
VERTEX
  8
LAYER_1
 10
227.3955
 20
-155.3439
  0
VERTEX
  8
LAYER_1
 10
224.9165
 20
-153.14
  0
VERTEX
  8
LAYER_1
 10
222.1619
 20
-151.4872
  0
VERTEX
  8
LAYER_1
 10
218.9939
 20
-150.1099
  0
VERTEX
  8
LAYER_1
 10
215.8262
 20
-149.4213
  0
VERTEX
  8
LAYER_1
 10
212.5213
 20
-149.1461
  0
VERTEX
  8
LAYER_1
 10
209.2154
 20
-149.4213
  0
VERTEX
  8
LAYER_1
 10
205.9105
 20
-150.1099
  0
VERTEX
  8
LAYER_1
 10
202.8797
 20
-151.4872
  0
VERTEX
  8
LAYER_1
 10
200.1252
 20
-153.14
  0
VERTEX
  8
LAYER_1
 10
197.5085
 20
-155.3439
  0
VERTEX
  8
LAYER_1
 10
195.4426
 20
-157.8229
  0
VERTEX
  8
LAYER_1
 10
193.6519
 20
-160.715
  0
VERTEX
  8
LAYER_1
 10
192.4126
 20
-163.7451
  0
VERTEX
  8
LAYER_1
 10
191.5867
 20
-166.9131
  0
VERTEX
  8
LAYER_1
 10
191.3112
 20
-170.2184
  0
VERTEX
  8
LAYER_1
 10
191.5867
 20
-173.524
  0
VERTEX
  8
LAYER_1
 10
192.4126
 20
-176.8296
  0
VERTEX
  8
LAYER_1
 10
193.6519
 20
-179.8593
  0
VERTEX
  8
LAYER_1
 10
195.4426
 20
-182.7518
  0
VERTEX
  8
LAYER_1
 10
197.5085
 20
-185.2308
  0
VERTEX
  8
LAYER_1
 10
200.1252
 20
-187.4346
  0
VERTEX
  8
LAYER_1
 10
202.8797
 20
-189.0871
  0
VERTEX
  8
LAYER_1
 10
205.9105
 20
-190.3268
  0
VERTEX
  8
LAYER_1
 10
209.2154
 20
-191.153
  0
VERTEX
  8
LAYER_1
 10
212.5213
 20
-191.4285
  0
VERTEX
  8
LAYER_1
 10
215.8262
 20
-191.153
  0
VERTEX
  8
LAYER_1
 10
218.9939
 20
-190.3268
  0
VERTEX
  8
LAYER_1
 10
222.1619
 20
-189.0871
  0
VERTEX
  8
LAYER_1
 10
224.9165
 20
-187.4346
  0
VERTEX
  8
LAYER_1
 10
227.3955
 20
-185.2308
  0
VERTEX
  8
LAYER_1
 10
229.599
 20
-182.7518
  0
VERTEX
  8
LAYER_1
 10
231.3897
 20
-179.8593
  0
VERTEX
  8
LAYER_1
 10
232.6298
 20
-176.8296
  0
VERTEX
  8
LAYER_1
 10
233.3177
 20
-173.524
  0
SEQEND
  0
POLYLINE
  8
LAYER_1
 40
0.254
 41
0.254
 66
1
 10
0
 20
0
 30
0
  0
VERTEX
  8
LAYER_1
 10
199.0241
 20
-146.3916
  0
VERTEX
  8
LAYER_1
 10
187.3166
 20
-146.3916
  0
SEQEND
  0
POLYLINE
  8
LAYER_1
 40
0.254
 41
0.254
 66
1
 10
0
 20
0
 30
0
  0
VERTEX
  8
LAYER_1
 10
186.3524
 20
-143.3615
  0
VERTEX
  8
LAYER_1
 10
288.409
 20
-143.3615
  0
SEQEND
  0
POLYLINE
  8
LAYER_1
 40
0.254
 41
0.254
 66
1
 10
0
 20
0
 30
0
  0
VERTEX
  8
LAYER_1
 10
287.3073
 20
-145.1519
  0
VERTEX
  8
LAYER_1
 10
187.3166
 20
-145.1519
  0
SEQEND
  0
ENDBLK
  0
BLOCK
  8
LAYER_1
  2
AIGNBL01010004
 70
64
 10
0
 20
0
 30
0
  3
AIGNBL01010004
  0
POLYLINE
  8
LAYER_1
 40
0.254
 41
0.254
 66
1
 10
0
 20
0
 30
0
  0
VERTEX
  8
LAYER_1
 10
113.3562
 20
-178.069
  0
VERTEX
  8
LAYER_1
 10
125.7521
 20
-178.069
  0
SEQEND
  0
POLYLINE
  8
LAYER_1
 40
0.254
 41
0.254
 66
1
 10
0
 20
0
 30
0
  0
VERTEX
  8
LAYER_1
 10
169.8249
 20
-196.2491
  0
VERTEX
  8
LAYER_1
 10
169.8249
 20
-136.7504
  0
SEQEND
  0
POLYLINE
  8
LAYER_1
 40
0.254
 41
0.254
 66
1
 10
0
 20
0
 30
0
  0
VERTEX
  8
LAYER_1
 10
105.2309
 20
-196.2491
  0
VERTEX
  8
LAYER_1
 10
105.2309
 20
-136.7504
  0
SEQEND
  0
POLYLINE
  8
LAYER_1
 40
0.254
 41
0.254
 66
1
 10
0
 20
0
 30
0
  0
VERTEX
  8
LAYER_1
 10
168.0352
 20
-136.7504
  0
VERTEX
  8
LAYER_1
 10
107.0209
 20
-136.7504
  0
SEQEND
  0
POLYLINE
  8
LAYER_1
 40
0.254
 41
0.254
 66
1
 10
0
 20
0
 30
0
  0
VERTEX
  8
LAYER_1
 10
125.7521
 20
-162.3679
  0
VERTEX
  8
LAYER_1
 10
113.3562
 20
-162.3679
  0
VERTEX
  8
LAYER_1
 10
112.53
 20
-162.6434
  0
VERTEX
  8
LAYER_1
 10
111.979
 20
-163.1941
  0
VERTEX
  8
LAYER_1
 10
111.8421
 20
-164.0207
  0
SEQEND
  0
POLYLINE
  8
LAYER_1
 40
0.254
 41
0.254
 66
1
 10
0
 20
0
 30
0
  0
VERTEX
  8
LAYER_1
 10
111.8421
 20
-176.4162
  0
VERTEX
  8
LAYER_1
 10
111.8421
 20
-164.0207
  0
SEQEND
  0
POLYLINE
  8
LAYER_1
 40
0.254
 41
0.254
 66
1
 10
0
 20
0
 30
0
 70
1
  0
VERTEX
  8
LAYER_1
 10
126.8538
 20
-170.2185
  0
VERTEX
  8
LAYER_1
 10
126.7166
 20
-168.2898
  0
VERTEX
  8
LAYER_1
 10
125.8904
 20
-166.6377
  0
VERTEX
  8
LAYER_1
 10
124.7879
 20
-165.1225
  0
VERTEX
  8
LAYER_1
 10
123.2734
 20
-163.8828
  0
VERTEX
  8
LAYER_1
 10
121.4823
 20
-163.1941
  0
VERTEX
  8
LAYER_1
 10
119.5547
 20
-162.919
  0
VERTEX
  8
LAYER_1
 10
117.7636
 20
-163.1941
  0
VERTEX
  8
LAYER_1
 10
115.9732
 20
-163.8828
  0
VERTEX
  8
LAYER_1
 10
114.4583
 20
-165.1225
  0
VERTEX
  8
LAYER_1
 10
113.2186
 20
-166.6377
  0
VERTEX
  8
LAYER_1
 10
112.53
 20
-168.2898
  0
VERTEX
  8
LAYER_1
 10
112.2545
 20
-170.2185
  0
VERTEX
  8
LAYER_1
 10
112.53
 20
-172.1468
  0
VERTEX
  8
LAYER_1
 10
113.2186
 20
-173.9372
  0
VERTEX
  8
LAYER_1
 10
114.4583
 20
-175.452
  0
VERTEX
  8
LAYER_1
 10
115.9732
 20
-176.5538
  0
VERTEX
  8
LAYER_1
 10
117.7636
 20
-177.2424
  0
VERTEX
  8
LAYER_1
 10
119.5547
 20
-177.5179
  0
VERTEX
  8
LAYER_1
 10
121.4823
 20
-177.2424
  0
VERTEX
  8
LAYER_1
 10
123.2734
 20
-176.5538
  0
VERTEX
  8
LAYER_1
 10
124.7879
 20
-175.452
  0
VERTEX
  8
LAYER_1
 10
125.8904
 20
-173.9372
  0
VERTEX
  8
LAYER_1
 10
126.7166
 20
-172.1468
  0
SEQEND
  0
POLYLINE
  8
LAYER_1
 40
0.254
 41
0.254
 66
1
 10
0
 20
0
 30
0
  0
VERTEX
  8
LAYER_1
 10
149.1657
 20
-178.069
  0
VERTEX
  8
LAYER_1
 10
161.6991
 20
-178.069
  0
SEQEND
  0
POLYLINE
  8
LAYER_1
 40
0.254
 41
0.254
 66
1
 10
0
 20
0
 30
0
  0
VERTEX
  8
LAYER_1
 10
149.1657
 20
-162.3679
  0
VERTEX
  8
LAYER_1
 10
148.3395
 20
-162.6434
  0
VERTEX
  8
LAYER_1
 10
147.7885
 20
-163.1941
  0
VERTEX
  8
LAYER_1
 10
147.6509
 20
-164.0207
  0
SEQEND
  0
POLYLINE
  8
LAYER_1
 40
0.254
 41
0.254
 66
1
 10
0
 20
0
 30
0
  0
VERTEX
  8
LAYER_1
 10
163.214
 20
-164.0207
  0
VERTEX
  8
LAYER_1
 10
163.0764
 20
-163.1941
  0
VERTEX
  8
LAYER_1
 10
162.3878
 20
-162.6434
  0
VERTEX
  8
LAYER_1
 10
161.6991
 20
-162.3679
  0
SEQEND
  0
POLYLINE
  8
LAYER_1
 40
0.254
 41
0.254
 66
1
 10
0
 20
0
 30
0
  0
VERTEX
  8
LAYER_1
 10
149.1657
 20
-162.3679
  0
VERTEX
  8
LAYER_1
 10
161.6991
 20
-162.3679
  0
SEQEND
  0
POLYLINE
  8
LAYER_1
 40
0.254
 41
0.254
 66
1
 10
0
 20
0
 30
0
 70
1
  0
VERTEX
  8
LAYER_1
 10
162.8009
 20
-170.2185
  0
VERTEX
  8
LAYER_1
 10
162.5254
 20
-168.2898
  0
VERTEX
  8
LAYER_1
 10
161.6991
 20
-166.6377
  0
VERTEX
  8
LAYER_1
 10
160.5977
 20
-165.1225
  0
VERTEX
  8
LAYER_1
 10
159.0822
 20
-163.8828
  0
VERTEX
  8
LAYER_1
 10
157.2918
 20
-163.1941
  0
VERTEX
  8
LAYER_1
 10
155.3635
 20
-162.919
  0
VERTEX
  8
LAYER_1
 10
153.5731
 20
-163.1941
  0
VERTEX
  8
LAYER_1
 10
151.7827
 20
-163.8828
  0
VERTEX
  8
LAYER_1
 10
150.2682
 20
-165.1225
  0
VERTEX
  8
LAYER_1
 10
149.0281
 20
-166.6377
  0
VERTEX
  8
LAYER_1
 10
148.3395
 20
-168.2898
  0
VERTEX
  8
LAYER_1
 10
148.064
 20
-170.2185
  0
VERTEX
  8
LAYER_1
 10
148.3395
 20
-172.1468
  0
VERTEX
  8
LAYER_1
 10
149.0281
 20
-173.9372
  0
VERTEX
  8
LAYER_1
 10
150.2682
 20
-175.452
  0
VERTEX
  8
LAYER_1
 10
151.7827
 20
-176.5538
  0
VERTEX
  8
LAYER_1
 10
153.5731
 20
-177.2424
  0
VERTEX
  8
LAYER_1
 10
155.3635
 20
-177.5179
  0
VERTEX
  8
LAYER_1
 10
157.2918
 20
-177.2424
  0
VERTEX
  8
LAYER_1
 10
159.0822
 20
-176.5538
  0
VERTEX
  8
LAYER_1
 10
160.5977
 20
-175.452
  0
VERTEX
  8
LAYER_1
 10
161.6991
 20
-173.9372
  0
VERTEX
  8
LAYER_1
 10
162.5254
 20
-172.1468
  0
SEQEND
  0
POLYLINE
  8
LAYER_1
 40
0.254
 41
0.254
 66
1
 10
0
 20
0
 30
0
  0
VERTEX
  8
LAYER_1
 10
127.4049
 20
-176.4162
  0
VERTEX
  8
LAYER_1
 10
127.4049
 20
-164.0207
  0
SEQEND
  0
POLYLINE
  8
LAYER_1
 40
0.254
 41
0.254
 66
1
 10
0
 20
0
 30
0
  0
VERTEX
  8
LAYER_1
 10
147.6509
 20
-176.4162
  0
VERTEX
  8
LAYER_1
 10
147.6509
 20
-164.0207
  0
SEQEND
  0
POLYLINE
  8
LAYER_1
 40
0.254
 41
0.254
 66
1
 10
0
 20
0
 30
0
  0
VERTEX
  8
LAYER_1
 10
163.214
 20
-176.4162
  0
VERTEX
  8
LAYER_1
 10
163.214
 20
-164.0207
  0
SEQEND
  0
POLYLINE
  8
LAYER_1
 40
0.254
 41
0.254
 66
1
 10
0
 20
0
 30
0
  0
VERTEX
  8
LAYER_1
 10
127.4049
 20
-164.0207
  0
VERTEX
  8
LAYER_1
 10
127.1293
 20
-163.1941
  0
VERTEX
  8
LAYER_1
 10
126.5783
 20
-162.6434
  0
VERTEX
  8
LAYER_1
 10
125.7521
 20
-162.3679
  0
SEQEND
  0
POLYLINE
  8
LAYER_1
 40
0.254
 41
0.254
 66
1
 10
0
 20
0
 30
0
  0
VERTEX
  8
LAYER_1
 10
169.8249
 20
-144.1878
  0
VERTEX
  8
LAYER_1
 10
169.5497
 20
-143.6368
  0
VERTEX
  8
LAYER_1
 10
168.9986
 20
-143.3612
  0
SEQEND
  0
POLYLINE
  8
LAYER_1
 40
0.254
 41
0.254
 66
1
 10
0
 20
0
 30
0
  0
VERTEX
  8
LAYER_1
 10
186.3525
 20
-143.3612
  0
VERTEX
  8
LAYER_1
 10
185.8015
 20
-143.6368
  0
VERTEX
  8
LAYER_1
 10
185.5259
 20
-144.1878
  0
SEQEND
  0
POLYLINE
  8
LAYER_1
 40
0.254
 41
0.254
 66
1
 10
0
 20
0
 30
0
  0
VERTEX
  8
LAYER_1
 10
105.2309
 20
-143.3612
  0
VERTEX
  8
LAYER_1
 10
168.9986
 20
-143.3612
  0
SEQEND
  0
POLYLINE
  8
LAYER_1
 40
0.254
 41
0.254
 66
1
 10
0
 20
0
 30
0
  0
VERTEX
  8
LAYER_1
 10
188.556
 20
-146.3913
  0
VERTEX
  8
LAYER_1
 10
188.556
 20
-156.7212
  0
SEQEND
  0
POLYLINE
  8
LAYER_1
 40
0.254
 41
0.254
 66
1
 10
0
 20
0
 30
0
 70
1
  0
VERTEX
  8
LAYER_1
 10
178.6396
 20
-166.7753
  0
VERTEX
  8
LAYER_1
 10
178.2264
 20
-167.1884
  0
VERTEX
  8
LAYER_1
 10
176.1605
 20
-167.1884
  0
VERTEX
  8
LAYER_1
 10
175.7474
 20
-166.7753
  0
VERTEX
  8
LAYER_1
 10
175.7474
 20
-166.2242
  0
VERTEX
  8
LAYER_1
 10
176.1605
 20
-165.8111
  0
VERTEX
  8
LAYER_1
 10
178.2264
 20
-165.8111
  0
VERTEX
  8
LAYER_1
 10
178.6396
 20
-166.2242
  0
SEQEND
  0
POLYLINE
  8
LAYER_1
 40
0.254
 41
0.254
 66
1
 10
0
 20
0
 30
0
  0
VERTEX
  8
LAYER_1
 10
178.6396
 20
-170.2185
  0
VERTEX
  8
LAYER_1
 10
178.6396
 20
-169.2543
  0
SEQEND
  0
POLYLINE
  8
LAYER_1
 40
0.254
 41
0.254
 66
1
 10
0
 20
0
 30
0
  0
VERTEX
  8
LAYER_1
 10
178.6396
 20
-168.2898
  0
VERTEX
  8
LAYER_1
 10
178.2264
 20
-168.2898
  0
SEQEND
  0
POLYLINE
  8
LAYER_1
 40
0.254
 41
0.254
 66
1
 10
0
 20
0
 30
0
  0
VERTEX
  8
LAYER_1
 10
176.1605
 20
-170.2185
  0
VERTEX
  8
LAYER_1
 10
175.7474
 20
-169.8053
  0
VERTEX
  8
LAYER_1
 10
178.6396
 20
-169.8053
  0
SEQEND
  0
POLYLINE
  8
LAYER_1
 40
0.254
 41
0.254
 66
1
 10
0
 20
0
 30
0
  0
VERTEX
  8
LAYER_1
 10
177.6754
 20
-171.1826
  0
VERTEX
  8
LAYER_1
 10
177.6754
 20
-173.2485
  0
VERTEX
  8
LAYER_1
 10
175.7474
 20
-171.733
  0
VERTEX
  8
LAYER_1
 10
178.6396
 20
-171.733
  0
SEQEND
  0
POLYLINE
  8
LAYER_1
 40
0.254
 41
0.254
 66
1
 10
0
 20
0
 30
0
  0
VERTEX
  8
LAYER_1
 10
178.2264
 20
-176.2779
  0
VERTEX
  8
LAYER_1
 10
178.6396
 20
-175.7276
  0
VERTEX
  8
LAYER_1
 10
178.6396
 20
-174.7634
  0
VERTEX
  8
LAYER_1
 10
178.2264
 20
-174.2127
  0
VERTEX
  8
LAYER_1
 10
177.263
 20
-174.2127
  0
VERTEX
  8
LAYER_1
 10
176.7116
 20
-174.7634
  0
VERTEX
  8
LAYER_1
 10
176.7116
 20
-176.2779
  0
VERTEX
  8
LAYER_1
 10
175.7474
 20
-176.2779
  0
VERTEX
  8
LAYER_1
 10
175.7474
 20
-174.2127
  0
SEQEND
  0
ENDBLK
  0
BLOCK
  8
LAYER_1
  2
AIGNBL01010005
 70
64
 10
0
 20
0
 30
0
  3
AIGNBL01010005
  0
POLYLINE
  8
LAYER_1
 40
0.254
 41
0.254
 66
1
 10
0
 20
0
 30
0
 70
1
  0
VERTEX
  8
LAYER_1
 10
162.801
 20
-170.2184
  0
VERTEX
  8
LAYER_1
 10
162.5254
 20
-168.2897
  0
VERTEX
  8
LAYER_1
 10
161.6992
 20
-166.6376
  0
VERTEX
  8
LAYER_1
 10
160.5978
 20
-165.1224
  0
VERTEX
  8
LAYER_1
 10
159.0823
 20
-163.8827
  0
VERTEX
  8
LAYER_1
 10
157.2919
 20
-163.1945
  0
VERTEX
  8
LAYER_1
 10
155.3635
 20
-162.9189
  0
VERTEX
  8
LAYER_1
 10
153.5732
 20
-163.1945
  0
VERTEX
  8
LAYER_1
 10
151.7828
 20
-163.8827
  0
VERTEX
  8
LAYER_1
 10
150.2683
 20
-165.1224
  0
VERTEX
  8
LAYER_1
 10
149.0282
 20
-166.6376
  0
VERTEX
  8
LAYER_1
 10
148.3396
 20
-168.2897
  0
VERTEX
  8
LAYER_1
 10
148.0641
 20
-170.2184
  0
VERTEX
  8
LAYER_1
 10
148.3396
 20
-172.1467
  0
VERTEX
  8
LAYER_1
 10
149.0282
 20
-173.9371
  0
VERTEX
  8
LAYER_1
 10
150.2683
 20
-175.452
  0
VERTEX
  8
LAYER_1
 10
151.7828
 20
-176.5541
  0
VERTEX
  8
LAYER_1
 10
153.5732
 20
-177.2427
  0
VERTEX
  8
LAYER_1
 10
155.3635
 20
-177.5179
  0
VERTEX
  8
LAYER_1
 10
157.2919
 20
-177.2427
  0
VERTEX
  8
LAYER_1
 10
159.0823
 20
-176.5541
  0
VERTEX
  8
LAYER_1
 10
160.5978
 20
-175.452
  0
VERTEX
  8
LAYER_1
 10
161.6992
 20
-173.9371
  0
VERTEX
  8
LAYER_1
 10
162.5254
 20
-172.1467
  0
SEQEND
  0
POLYLINE
  8
LAYER_1
 40
0.254
 41
0.254
 66
1
 10
0
 20
0
 30
0
  0
VERTEX
  8
LAYER_1
 10
149.3034
 20
-162.5051
  0
VERTEX
  8
LAYER_1
 10
148.6148
 20
-162.781
  0
VERTEX
  8
LAYER_1
 10
147.9261
 20
-163.332
  0
VERTEX
  8
LAYER_1
 10
147.7885
 20
-164.1583
  0
SEQEND
  0
POLYLINE
  8
LAYER_1
 40
0.254
 41
0.254
 66
1
 10
0
 20
0
 30
0
  0
VERTEX
  8
LAYER_1
 10
149.3034
 20
-162.6434
  0
VERTEX
  8
LAYER_1
 10
148.6148
 20
-162.781
  0
VERTEX
  8
LAYER_1
 10
147.9261
 20
-163.332
  0
VERTEX
  8
LAYER_1
 10
147.7885
 20
-164.1583
  0
SEQEND
  0
POLYLINE
  8
LAYER_1
 40
0.254
 41
0.254
 66
1
 10
0
 20
0
 30
0
  0
VERTEX
  8
LAYER_1
 10
150.2683
 20
-163.6076
  0
VERTEX
  8
LAYER_1
 10
149.9927
 20
-163.7452
  0
VERTEX
  8
LAYER_1
 10
149.8544
 20
-164.1583
  0
SEQEND
  0
POLYLINE
  8
LAYER_1
 40
0.254
 41
0.254
 66
1
 10
0
 20
0
 30
0
  0
VERTEX
  8
LAYER_1
 10
160.8733
 20
-164.1583
  0
VERTEX
  8
LAYER_1
 10
160.8733
 20
-163.7452
  0
VERTEX
  8
LAYER_1
 10
160.4595
 20
-163.6076
  0
SEQEND
  0
POLYLINE
  8
LAYER_1
 40
0.254
 41
0.254
 66
1
 10
0
 20
0
 30
0
  0
VERTEX
  8
LAYER_1
 10
156.1898
 20
-162.781
  0
VERTEX
  8
LAYER_1
 10
160.4595
 20
-163.6076
  0
SEQEND
  0
POLYLINE
  8
LAYER_1
 40
0.254
 41
0.254
 66
1
 10
0
 20
0
 30
0
  0
VERTEX
  8
LAYER_1
 10
160.4595
 20
-165.1224
  0
VERTEX
  8
LAYER_1
 10
158.9443
 20
-164.0207
  0
VERTEX
  8
LAYER_1
 10
157.2919
 20
-163.332
  0
VERTEX
  8
LAYER_1
 10
155.3635
 20
-163.0565
  0
VERTEX
  8
LAYER_1
 10
153.5732
 20
-163.332
  0
VERTEX
  8
LAYER_1
 10
151.7828
 20
-164.0207
  0
VERTEX
  8
LAYER_1
 10
150.4055
 20
-165.1224
  0
SEQEND
  0
POLYLINE
  8
LAYER_1
 40
0.254
 41
0.254
 66
1
 10
0
 20
0
 30
0
  0
VERTEX
  8
LAYER_1
 10
161.6992
 20
-178.069
  0
VERTEX
  8
LAYER_1
 10
149.1658
 20
-178.069
  0
SEQEND
  0
POLYLINE
  8
LAYER_1
 40
0.254
 41
0.254
 66
1
 10
0
 20
0
 30
0
  0
VERTEX
  8
LAYER_1
 10
150.2683
 20
-163.6076
  0
VERTEX
  8
LAYER_1
 10
154.6749
 20
-162.781
  0
SEQEND
  0
POLYLINE
  8
LAYER_1
 40
0.254
 41
0.254
 66
1
 10
0
 20
0
 30
0
 70
1
  0
VERTEX
  8
LAYER_1
 10
149.3034
 20
-177.9314
  0
VERTEX
  8
LAYER_1
 10
161.4237
 20
-177.9314
  0
SEQEND
  0
POLYLINE
  8
LAYER_1
 40
0.254
 41
0.254
 66
1
 10
0
 20
0
 30
0
  0
VERTEX
  8
LAYER_1
 10
147.6506
 20
-176.4162
  0
VERTEX
  8
LAYER_1
 10
147.7885
 20
-177.2427
  0
VERTEX
  8
LAYER_1
 10
148.3396
 20
-177.7934
  0
VERTEX
  8
LAYER_1
 10
149.1658
 20
-178.069
  0
SEQEND
  0
POLYLINE
  8
LAYER_1
 40
0.254
 41
0.254
 66
1
 10
0
 20
0
 30
0
  0
VERTEX
  8
LAYER_1
 10
147.7885
 20
-176.2779
  0
VERTEX
  8
LAYER_1
 10
147.9261
 20
-177.1048
  0
VERTEX
  8
LAYER_1
 10
148.6148
 20
-177.6558
  0
VERTEX
  8
LAYER_1
 10
149.3034
 20
-177.9314
  0
SEQEND
  0
POLYLINE
  8
LAYER_1
 40
0.254
 41
0.254
 66
1
 10
0
 20
0
 30
0
  0
VERTEX
  8
LAYER_1
 10
147.7885
 20
-176.2779
  0
VERTEX
  8
LAYER_1
 10
147.9261
 20
-177.1048
  0
VERTEX
  8
LAYER_1
 10
148.6148
 20
-177.6558
  0
VERTEX
  8
LAYER_1
 10
149.3034
 20
-177.9314
  0
SEQEND
  0
POLYLINE
  8
LAYER_1
 40
0.254
 41
0.254
 66
1
 10
0
 20
0
 30
0
  0
VERTEX
  8
LAYER_1
 10
163.2141
 20
-176.4162
  0
VERTEX
  8
LAYER_1
 10
163.2141
 20
-164.0207
  0
SEQEND
  0
POLYLINE
  8
LAYER_1
 40
0.254
 41
0.254
 66
1
 10
0
 20
0
 30
0
 70
1
  0
VERTEX
  8
LAYER_1
 10
217.8923
 20
-170.2184
  0
VERTEX
  8
LAYER_1
 10
217.6168
 20
-168.5656
  0
VERTEX
  8
LAYER_1
 10
216.9282
 20
-167.0508
  0
VERTEX
  8
LAYER_1
 10
215.6892
 20
-165.9483
  0
VERTEX
  8
LAYER_1
 10
214.1736
 20
-165.1224
  0
VERTEX
  8
LAYER_1
 10
212.5215
 20
-164.8466
  0
VERTEX
  8
LAYER_1
 10
210.868
 20
-165.1224
  0
VERTEX
  8
LAYER_1
 10
209.3535
 20
-165.9483
  0
VERTEX
  8
LAYER_1
 10
208.1134
 20
-167.0508
  0
VERTEX
  8
LAYER_1
 10
207.2872
 20
-168.5656
  0
VERTEX
  8
LAYER_1
 10
207.1493
 20
-170.2184
  0
VERTEX
  8
LAYER_1
 10
207.2872
 20
-172.0088
  0
VERTEX
  8
LAYER_1
 10
208.1134
 20
-173.3861
  0
VERTEX
  8
LAYER_1
 10
209.3535
 20
-174.6258
  0
VERTEX
  8
LAYER_1
 10
210.868
 20
-175.452
  0
VERTEX
  8
LAYER_1
 10
212.5215
 20
-175.7275
  0
VERTEX
  8
LAYER_1
 10
214.1736
 20
-175.452
  0
VERTEX
  8
LAYER_1
 10
215.6892
 20
-174.6258
  0
VERTEX
  8
LAYER_1
 10
216.9282
 20
-173.3861
  0
VERTEX
  8
LAYER_1
 10
217.6168
 20
-172.0088
  0
SEQEND
  0
POLYLINE
  8
LAYER_1
 40
0.254
 41
0.254
 66
1
 10
0
 20
0
 30
0
 70
1
  0
VERTEX
  8
LAYER_1
 10
234.8327
 20
-170.2184
  0
VERTEX
  8
LAYER_1
 10
234.5572
 20
-166.7752
  0
VERTEX
  8
LAYER_1
 10
233.731
 20
-163.332
  0
VERTEX
  8
LAYER_1
 10
232.4913
 20
-160.1644
  0
VERTEX
  8
LAYER_1
 10
230.5633
 20
-157.1343
  0
VERTEX
  8
LAYER_1
 10
228.3595
 20
-154.3798
  0
VERTEX
  8
LAYER_1
 10
225.6049
 20
-152.1756
  0
VERTEX
  8
LAYER_1
 10
222.7128
 20
-150.3855
  0
VERTEX
  8
LAYER_1
 10
219.4079
 20
-149.0082
  0
VERTEX
  8
LAYER_1
 10
215.9647
 20
-148.182
  0
VERTEX
  8
LAYER_1
 10
212.5215
 20
-147.9065
  0
VERTEX
  8
LAYER_1
 10
208.94
 20
-148.182
  0
VERTEX
  8
LAYER_1
 10
205.6351
 20
-149.0082
  0
VERTEX
  8
LAYER_1
 10
202.3288
 20
-150.3855
  0
VERTEX
  8
LAYER_1
 10
199.2988
 20
-152.1756
  0
VERTEX
  8
LAYER_1
 10
196.6821
 20
-154.3798
  0
VERTEX
  8
LAYER_1
 10
194.3407
 20
-157.1343
  0
VERTEX
  8
LAYER_1
 10
192.5503
 20
-160.1644
  0
VERTEX
  8
LAYER_1
 10
191.173
 20
-163.332
  0
VERTEX
  8
LAYER_1
 10
190.3465
 20
-166.7752
  0
VERTEX
  8
LAYER_1
 10
190.0709
 20
-170.2184
  0
VERTEX
  8
LAYER_1
 10
190.3465
 20
-173.7992
  0
VERTEX
  8
LAYER_1
 10
191.173
 20
-177.2427
  0
VERTEX
  8
LAYER_1
 10
192.5503
 20
-180.4104
  0
VERTEX
  8
LAYER_1
 10
194.3407
 20
-183.4405
  0
VERTEX
  8
LAYER_1
 10
196.6821
 20
-186.0571
  0
VERTEX
  8
LAYER_1
 10
199.2988
 20
-188.3985
  0
VERTEX
  8
LAYER_1
 10
202.3288
 20
-190.1889
  0
VERTEX
  8
LAYER_1
 10
205.6351
 20
-191.5662
  0
VERTEX
  8
LAYER_1
 10
208.94
 20
-192.3921
  0
VERTEX
  8
LAYER_1
 10
212.5215
 20
-192.6683
  0
VERTEX
  8
LAYER_1
 10
215.9647
 20
-192.3921
  0
VERTEX
  8
LAYER_1
 10
219.4079
 20
-191.5662
  0
VERTEX
  8
LAYER_1
 10
222.7128
 20
-190.1889
  0
VERTEX
  8
LAYER_1
 10
225.6049
 20
-188.3985
  0
VERTEX
  8
LAYER_1
 10
228.3595
 20
-186.0571
  0
VERTEX
  8
LAYER_1
 10
230.5633
 20
-183.4405
  0
VERTEX
  8
LAYER_1
 10
232.4913
 20
-180.4104
  0
VERTEX
  8
LAYER_1
 10
233.731
 20
-177.2427
  0
VERTEX
  8
LAYER_1
 10
234.5572
 20
-173.7992
  0
SEQEND
  0
POLYLINE
  8
LAYER_1
 40
0.254
 41
0.254
 66
1
 10
0
 20
0
 30
0
 70
1
  0
VERTEX
  8
LAYER_1
 10
232.2161
 20
-170.2184
  0
VERTEX
  8
LAYER_1
 10
231.9406
 20
-167.1883
  0
VERTEX
  8
LAYER_1
 10
231.252
 20
-164.1583
  0
VERTEX
  8
LAYER_1
 10
230.013
 20
-161.4034
  0
VERTEX
  8
LAYER_1
 10
228.3595
 20
-158.6492
  0
VERTEX
  8
LAYER_1
 10
226.4315
 20
-156.3077
  0
VERTEX
  8
LAYER_1
 10
224.0901
 20
-154.3798
  0
VERTEX
  8
LAYER_1
 10
221.4731
 20
-152.727
  0
VERTEX
  8
LAYER_1
 10
218.5813
 20
-151.6252
  0
VERTEX
  8
LAYER_1
 10
215.5509
 20
-150.7986
  0
VERTEX
  8
LAYER_1
 10
212.5215
 20
-150.661
  0
VERTEX
  8
LAYER_1
 10
209.4907
 20
-150.7986
  0
VERTEX
  8
LAYER_1
 10
206.4607
 20
-151.6252
  0
VERTEX
  8
LAYER_1
 10
203.5685
 20
-152.727
  0
VERTEX
  8
LAYER_1
 10
200.9515
 20
-154.3798
  0
VERTEX
  8
LAYER_1
 10
198.6101
 20
-156.3077
  0
VERTEX
  8
LAYER_1
 10
196.5442
 20
-158.6492
  0
VERTEX
  8
LAYER_1
 10
195.03
 20
-161.4034
  0
VERTEX
  8
LAYER_1
 10
193.7896
 20
-164.1583
  0
VERTEX
  8
LAYER_1
 10
193.101
 20
-167.1883
  0
VERTEX
  8
LAYER_1
 10
192.8255
 20
-170.2184
  0
VERTEX
  8
LAYER_1
 10
193.101
 20
-173.3861
  0
VERTEX
  8
LAYER_1
 10
193.7896
 20
-176.4162
  0
VERTEX
  8
LAYER_1
 10
195.03
 20
-179.1707
  0
VERTEX
  8
LAYER_1
 10
196.5442
 20
-181.7877
  0
VERTEX
  8
LAYER_1
 10
198.6101
 20
-184.1291
  0
VERTEX
  8
LAYER_1
 10
200.9515
 20
-186.195
  0
VERTEX
  8
LAYER_1
 10
203.5685
 20
-187.8478
  0
VERTEX
  8
LAYER_1
 10
206.4607
 20
-188.9489
  0
VERTEX
  8
LAYER_1
 10
209.4907
 20
-189.6382
  0
VERTEX
  8
LAYER_1
 10
212.5215
 20
-189.9137
  0
VERTEX
  8
LAYER_1
 10
215.5509
 20
-189.6382
  0
VERTEX
  8
LAYER_1
 10
218.5813
 20
-188.9489
  0
VERTEX
  8
LAYER_1
 10
221.4731
 20
-187.8478
  0
VERTEX
  8
LAYER_1
 10
224.0901
 20
-186.195
  0
VERTEX
  8
LAYER_1
 10
226.4315
 20
-184.1291
  0
VERTEX
  8
LAYER_1
 10
228.3595
 20
-181.7877
  0
VERTEX
  8
LAYER_1
 10
230.013
 20
-179.1707
  0
VERTEX
  8
LAYER_1
 10
231.252
 20
-176.4162
  0
VERTEX
  8
LAYER_1
 10
231.9406
 20
-173.3861
  0
SEQEND
  0
POLYLINE
  8
LAYER_1
 40
0.254
 41
0.254
 66
1
 10
0
 20
0
 30
0
 70
1
  0
VERTEX
  8
LAYER_1
 10
230.5633
 20
-170.2184
  0
VERTEX
  8
LAYER_1
 10
230.2878
 20
-167.1883
  0
VERTEX
  8
LAYER_1
 10
229.4619
 20
-164.1583
  0
VERTEX
  8
LAYER_1
 10
228.0843
 20
-161.2661
  0
VERTEX
  8
LAYER_1
 10
226.2943
 20
-158.6492
  0
VERTEX
  8
LAYER_1
 10
224.0901
 20
-156.4457
  0
VERTEX
  8
LAYER_1
 10
221.4731
 20
-154.6553
  0
VERTEX
  8
LAYER_1
 10
218.7185
 20
-153.278
  0
VERTEX
  8
LAYER_1
 10
215.6892
 20
-152.4514
  0
VERTEX
  8
LAYER_1
 10
212.5215
 20
-152.1756
  0
VERTEX
  8
LAYER_1
 10
209.3535
 20
-152.4514
  0
VERTEX
  8
LAYER_1
 10
206.3231
 20
-153.278
  0
VERTEX
  8
LAYER_1
 10
203.4306
 20
-154.6553
  0
VERTEX
  8
LAYER_1
 10
200.9515
 20
-156.4457
  0
VERTEX
  8
LAYER_1
 10
198.7484
 20
-158.6492
  0
VERTEX
  8
LAYER_1
 10
196.8197
 20
-161.2661
  0
VERTEX
  8
LAYER_1
 10
195.5807
 20
-164.1583
  0
VERTEX
  8
LAYER_1
 10
194.7545
 20
-167.1883
  0
VERTEX
  8
LAYER_1
 10
194.479
 20
-170.2184
  0
VERTEX
  8
LAYER_1
 10
194.7545
 20
-173.3861
  0
VERTEX
  8
LAYER_1
 10
195.5807
 20
-176.4162
  0
VERTEX
  8
LAYER_1
 10
196.8197
 20
-179.3086
  0
VERTEX
  8
LAYER_1
 10
198.7484
 20
-181.9253
  0
VERTEX
  8
LAYER_1
 10
200.9515
 20
-184.1291
  0
VERTEX
  8
LAYER_1
 10
203.4306
 20
-185.9195
  0
VERTEX
  8
LAYER_1
 10
206.3231
 20
-187.1592
  0
VERTEX
  8
LAYER_1
 10
209.3535
 20
-187.9854
  0
VERTEX
  8
LAYER_1
 10
212.5215
 20
-188.2609
  0
VERTEX
  8
LAYER_1
 10
215.6892
 20
-187.9854
  0
VERTEX
  8
LAYER_1
 10
218.7185
 20
-187.1592
  0
VERTEX
  8
LAYER_1
 10
221.4731
 20
-185.9195
  0
VERTEX
  8
LAYER_1
 10
224.0901
 20
-184.1291
  0
VERTEX
  8
LAYER_1
 10
226.2943
 20
-181.9253
  0
VERTEX
  8
LAYER_1
 10
228.0843
 20
-179.3086
  0
VERTEX
  8
LAYER_1
 10
229.4619
 20
-176.4162
  0
VERTEX
  8
LAYER_1
 10
230.2878
 20
-173.3861
  0
SEQEND
  0
POLYLINE
  8
LAYER_1
 40
0.254
 41
0.254
 66
1
 10
0
 20
0
 30
0
  0
VERTEX
  8
LAYER_1
 10
163.2141
 20
-164.0207
  0
VERTEX
  8
LAYER_1
 10
163.0765
 20
-163.1945
  0
VERTEX
  8
LAYER_1
 10
162.3879
 20
-162.6434
  0
VERTEX
  8
LAYER_1
 10
161.6992
 20
-162.3679
  0
SEQEND
  0
POLYLINE
  8
LAYER_1
 40
0.254
 41
0.254
 66
1
 10
0
 20
0
 30
0
  0
VERTEX
  8
LAYER_1
 10
161.6992
 20
-178.069
  0
VERTEX
  8
LAYER_1
 10
162.3879
 20
-177.7934
  0
VERTEX
  8
LAYER_1
 10
163.0765
 20
-177.2427
  0
VERTEX
  8
LAYER_1
 10
163.2141
 20
-176.4162
  0
SEQEND
  0
POLYLINE
  8
LAYER_1
 40
0.254
 41
0.254
 66
1
 10
0
 20
0
 30
0
  0
VERTEX
  8
LAYER_1
 10
161.4237
 20
-177.9314
  0
VERTEX
  8
LAYER_1
 10
162.2499
 20
-177.6558
  0
VERTEX
  8
LAYER_1
 10
162.801
 20
-177.1048
  0
VERTEX
  8
LAYER_1
 10
163.0765
 20
-176.2779
  0
SEQEND
  0
POLYLINE
  8
LAYER_1
 40
0.254
 41
0.254
 66
1
 10
0
 20
0
 30
0
  0
VERTEX
  8
LAYER_1
 10
161.4237
 20
-177.9314
  0
VERTEX
  8
LAYER_1
 10
162.2499
 20
-177.6558
  0
VERTEX
  8
LAYER_1
 10
162.801
 20
-177.1048
  0
VERTEX
  8
LAYER_1
 10
163.0765
 20
-176.2779
  0
SEQEND
  0
POLYLINE
  8
LAYER_1
 40
0.254
 41
0.254
 66
1
 10
0
 20
0
 30
0
  0
VERTEX
  8
LAYER_1
 10
163.0765
 20
-164.1583
  0
VERTEX
  8
LAYER_1
 10
162.801
 20
-163.332
  0
VERTEX
  8
LAYER_1
 10
162.2499
 20
-162.781
  0
VERTEX
  8
LAYER_1
 10
161.4237
 20
-162.5051
  0
SEQEND
  0
POLYLINE
  8
LAYER_1
 40
0.254
 41
0.254
 66
1
 10
0
 20
0
 30
0
  0
VERTEX
  8
LAYER_1
 10
163.0765
 20
-164.1583
  0
VERTEX
  8
LAYER_1
 10
162.801
 20
-163.332
  0
VERTEX
  8
LAYER_1
 10
162.2499
 20
-162.781
  0
VERTEX
  8
LAYER_1
 10
161.4237
 20
-162.6434
  0
SEQEND
  0
POLYLINE
  8
LAYER_1
 40
0.254
 41
0.254
 66
1
 10
0
 20
0
 30
0
  0
VERTEX
  8
LAYER_1
 10
105.231
 20
-143.3616
  0
VERTEX
  8
LAYER_1
 10
105.231
 20
-197.2132
  0
SEQEND
  0
POLYLINE
  8
LAYER_1
 40
0.254
 41
0.254
 66
1
 10
0
 20
0
 30
0
  0
VERTEX
  8
LAYER_1
 10
289.0979
 20
-11.4099
  0
VERTEX
  8
LAYER_1
 10
288.9599
 20
-10.8589
  0
VERTEX
  8
LAYER_1
 10
288.4092
 20
-10.5833
  0
SEQEND
  0
POLYLINE
  8
LAYER_1
 40
0.254
 41
0.254
 66
1
 10
0
 20
0
 30
0
  0
VERTEX
  8
LAYER_1
 10
289.2361
 20
-11.4099
  0
VERTEX
  8
LAYER_1
 10
288.9599
 20
-10.8589
  0
VERTEX
  8
LAYER_1
 10
288.4092
 20
-10.5833
  0
SEQEND
  0
POLYLINE
  8
LAYER_1
 40
0.254
 41
0.254
 66
1
 10
0
 20
0
 30
0
 70
1
  0
VERTEX
  8
LAYER_1
 10
284.6908
 20
-15.6793
  0
VERTEX
  8
LAYER_1
 10
284.5533
 20
-15.2662
  0
VERTEX
  8
LAYER_1
 10
284.2774
 20
-15.1283
  0
VERTEX
  8
LAYER_1
 10
283.8639
 20
-15.2662
  0
VERTEX
  8
LAYER_1
 10
283.7263
 20
-15.6793
  0
VERTEX
  8
LAYER_1
 10
283.8639
 20
-15.9549
  0
VERTEX
  8
LAYER_1
 10
284.2774
 20
-16.0924
  0
VERTEX
  8
LAYER_1
 10
284.5533
 20
-15.9549
  0
SEQEND
  0
POLYLINE
  8
LAYER_1
 40
0.254
 41
0.254
 66
1
 10
0
 20
0
 30
0
 70
1
  0
VERTEX
  8
LAYER_1
 10
277.2538
 20
-15.6793
  0
VERTEX
  8
LAYER_1
 10
277.1158
 20
-15.2662
  0
VERTEX
  8
LAYER_1
 10
276.7024
 20
-15.1283
  0
VERTEX
  8
LAYER_1
 10
276.4269
 20
-15.2662
  0
VERTEX
  8
LAYER_1
 10
276.2889
 20
-15.6793
  0
VERTEX
  8
LAYER_1
 10
276.4269
 20
-15.9549
  0
VERTEX
  8
LAYER_1
 10
276.7024
 20
-16.0924
  0
VERTEX
  8
LAYER_1
 10
277.1158
 20
-15.9549
  0
SEQEND
  0
POLYLINE
  8
LAYER_1
 40
0.254
 41
0.254
 66
1
 10
0
 20
0
 30
0
 70
1
  0
VERTEX
  8
LAYER_1
 10
284.6908
 20
-20.0867
  0
VERTEX
  8
LAYER_1
 10
284.5533
 20
-19.8112
  0
VERTEX
  8
LAYER_1
 10
284.2774
 20
-19.6736
  0
VERTEX
  8
LAYER_1
 10
283.8639
 20
-19.8112
  0
VERTEX
  8
LAYER_1
 10
283.7263
 20
-20.0867
  0
VERTEX
  8
LAYER_1
 10
283.8639
 20
-20.4998
  0
VERTEX
  8
LAYER_1
 10
284.2774
 20
-20.6374
  0
VERTEX
  8
LAYER_1
 10
284.5533
 20
-20.4998
  0
SEQEND
  0
POLYLINE
  8
LAYER_1
 40
0.254
 41
0.254
 66
1
 10
0
 20
0
 30
0
 70
1
  0
VERTEX
  8
LAYER_1
 10
277.2538
 20
-20.0867
  0
VERTEX
  8
LAYER_1
 10
277.1158
 20
-19.8112
  0
VERTEX
  8
LAYER_1
 10
276.7024
 20
-19.6736
  0
VERTEX
  8
LAYER_1
 10
276.4269
 20
-19.8112
  0
VERTEX
  8
LAYER_1
 10
276.2889
 20
-20.0867
  0
VERTEX
  8
LAYER_1
 10
276.4269
 20
-20.4998
  0
VERTEX
  8
LAYER_1
 10
276.7024
 20
-20.6374
  0
VERTEX
  8
LAYER_1
 10
277.1158
 20
-20.4998
  0
SEQEND
  0
POLYLINE
  8
LAYER_1
 40
0.254
 41
0.254
 66
1
 10
0
 20
0
 30
0
  0
VERTEX
  8
LAYER_1
 10
288.4092
 20
-64.435
  0
VERTEX
  8
LAYER_1
 10
288.9599
 20
-64.1598
  0
VERTEX
  8
LAYER_1
 10
289.0979
 20
-63.6088
  0
SEQEND
  0
POLYLINE
  8
LAYER_1
 40
0.254
 41
0.254
 66
1
 10
0
 20
0
 30
0
  0
VERTEX
  8
LAYER_1
 10
288.4092
 20
-64.435
  0
VERTEX
  8
LAYER_1
 10
288.9599
 20
-64.2974
  0
VERTEX
  8
LAYER_1
 10
289.2361
 20
-63.6088
  0
SEQEND
  0
POLYLINE
  8
LAYER_1
 40
0.254
 41
0.254
 66
1
 10
0
 20
0
 30
0
 70
1
  0
VERTEX
  8
LAYER_1
 10
284.6908
 20
-55.0696
  0
VERTEX
  8
LAYER_1
 10
284.5533
 20
-54.6565
  0
VERTEX
  8
LAYER_1
 10
284.2774
 20
-54.5189
  0
VERTEX
  8
LAYER_1
 10
283.8639
 20
-54.6565
  0
VERTEX
  8
LAYER_1
 10
283.7263
 20
-55.0696
  0
VERTEX
  8
LAYER_1
 10
283.8639
 20
-55.3451
  0
VERTEX
  8
LAYER_1
 10
284.2774
 20
-55.4827
  0
VERTEX
  8
LAYER_1
 10
284.5533
 20
-55.3451
  0
SEQEND
  0
POLYLINE
  8
LAYER_1
 40
0.254
 41
0.254
 66
1
 10
0
 20
0
 30
0
 70
1
  0
VERTEX
  8
LAYER_1
 10
284.6908
 20
-59.477
  0
VERTEX
  8
LAYER_1
 10
284.5533
 20
-59.2014
  0
VERTEX
  8
LAYER_1
 10
284.2774
 20
-59.0638
  0
VERTEX
  8
LAYER_1
 10
283.8639
 20
-59.2014
  0
VERTEX
  8
LAYER_1
 10
283.7263
 20
-59.477
  0
VERTEX
  8
LAYER_1
 10
283.8639
 20
-59.8901
  0
VERTEX
  8
LAYER_1
 10
284.2774
 20
-60.028
  0
VERTEX
  8
LAYER_1
 10
284.5533
 20
-59.8901
  0
SEQEND
  0
POLYLINE
  8
LAYER_1
 40
0.254
 41
0.254
 66
1
 10
0
 20
0
 30
0
 70
1
  0
VERTEX
  8
LAYER_1
 10
277.2538
 20
-55.0696
  0
VERTEX
  8
LAYER_1
 10
277.1158
 20
-54.6565
  0
VERTEX
  8
LAYER_1
 10
276.7024
 20
-54.5189
  0
VERTEX
  8
LAYER_1
 10
276.4269
 20
-54.6565
  0
VERTEX
  8
LAYER_1
 10
276.2889
 20
-55.0696
  0
VERTEX
  8
LAYER_1
 10
276.4269
 20
-55.3451
  0
VERTEX
  8
LAYER_1
 10
276.7024
 20
-55.4827
  0
VERTEX
  8
LAYER_1
 10
277.1158
 20
-55.3451
  0
SEQEND
  0
POLYLINE
  8
LAYER_1
 40
0.254
 41
0.254
 66
1
 10
0
 20
0
 30
0
 70
1
  0
VERTEX
  8
LAYER_1
 10
277.2538
 20
-59.477
  0
VERTEX
  8
LAYER_1
 10
277.1158
 20
-59.2014
  0
VERTEX
  8
LAYER_1
 10
276.7024
 20
-59.0638
  0
VERTEX
  8
LAYER_1
 10
276.4269
 20
-59.2014
  0
VERTEX
  8
LAYER_1
 10
276.2889
 20
-59.477
  0
VERTEX
  8
LAYER_1
 10
276.4269
 20
-59.8901
  0
VERTEX
  8
LAYER_1
 10
276.7024
 20
-60.028
  0
VERTEX
  8
LAYER_1
 10
277.1158
 20
-59.8901
  0
SEQEND
  0
POLYLINE
  8
LAYER_1
 40
0.254
 41
0.254
 66
1
 10
0
 20
0
 30
0
  0
VERTEX
  8
LAYER_1
 10
289.2361
 20
-11.4099
  0
VERTEX
  8
LAYER_1
 10
289.2361
 20
-63.6088
  0
SEQEND
  0
POLYLINE
  8
LAYER_1
 40
0.254
 41
0.254
 66
1
 10
0
 20
0
 30
0
  0
VERTEX
  8
LAYER_1
 10
289.0979
 20
-11.4099
  0
VERTEX
  8
LAYER_1
 10
289.0979
 20
-63.6088
  0
SEQEND
  0
POLYLINE
  8
LAYER_1
 40
0.254
 41
0.254
 66
1
 10
0
 20
0
 30
0
 70
1
  0
VERTEX
  8
LAYER_1
 10
191.0358
 20
-15.6793
  0
VERTEX
  8
LAYER_1
 10
190.8975
 20
-15.2662
  0
VERTEX
  8
LAYER_1
 10
190.622
 20
-15.1283
  0
VERTEX
  8
LAYER_1
 10
190.2089
 20
-15.2662
  0
VERTEX
  8
LAYER_1
 10
190.0709
 20
-15.6793
  0
VERTEX
  8
LAYER_1
 10
190.2089
 20
-15.9549
  0
VERTEX
  8
LAYER_1
 10
190.622
 20
-16.0924
  0
VERTEX
  8
LAYER_1
 10
190.8975
 20
-15.9549
  0
SEQEND
  0
POLYLINE
  8
LAYER_1
 40
0.254
 41
0.254
 66
1
 10
0
 20
0
 30
0
 70
1
  0
VERTEX
  8
LAYER_1
 10
198.4732
 20
-15.6793
  0
VERTEX
  8
LAYER_1
 10
198.3349
 20
-15.2662
  0
VERTEX
  8
LAYER_1
 10
198.0594
 20
-15.1283
  0
VERTEX
  8
LAYER_1
 10
197.7839
 20
-15.2662
  0
VERTEX
  8
LAYER_1
 10
197.6463
 20
-15.6793
  0
VERTEX
  8
LAYER_1
 10
197.7839
 20
-15.9549
  0
VERTEX
  8
LAYER_1
 10
198.0594
 20
-16.0924
  0
VERTEX
  8
LAYER_1
 10
198.3349
 20
-15.9549
  0
SEQEND
  0
POLYLINE
  8
LAYER_1
 40
0.254
 41
0.254
 66
1
 10
0
 20
0
 30
0
 70
1
  0
VERTEX
  8
LAYER_1
 10
198.4732
 20
-20.0867
  0
VERTEX
  8
LAYER_1
 10
198.3349
 20
-19.8112
  0
VERTEX
  8
LAYER_1
 10
198.0594
 20
-19.6736
  0
VERTEX
  8
LAYER_1
 10
197.7839
 20
-19.8112
  0
VERTEX
  8
LAYER_1
 10
197.6463
 20
-20.0867
  0
VERTEX
  8
LAYER_1
 10
197.7839
 20
-20.4998
  0
VERTEX
  8
LAYER_1
 10
198.0594
 20
-20.6374
  0
VERTEX
  8
LAYER_1
 10
198.3349
 20
-20.4998
  0
SEQEND
  0
POLYLINE
  8
LAYER_1
 40
0.254
 41
0.254
 66
1
 10
0
 20
0
 30
0
 70
1
  0
VERTEX
  8
LAYER_1
 10
191.0358
 20
-20.0867
  0
VERTEX
  8
LAYER_1
 10
190.8975
 20
-19.8112
  0
VERTEX
  8
LAYER_1
 10
190.622
 20
-19.6736
  0
VERTEX
  8
LAYER_1
 10
190.2089
 20
-19.8112
  0
VERTEX
  8
LAYER_1
 10
190.0709
 20
-20.0867
  0
VERTEX
  8
LAYER_1
 10
190.2089
 20
-20.4998
  0
VERTEX
  8
LAYER_1
 10
190.622
 20
-20.6374
  0
VERTEX
  8
LAYER_1
 10
190.8975
 20
-20.4998
  0
SEQEND
  0
POLYLINE
  8
LAYER_1
 40
0.254
 41
0.254
 66
1
 10
0
 20
0
 30
0
  0
VERTEX
  8
LAYER_1
 10
186.3526
 20
-10.5833
  0
VERTEX
  8
LAYER_1
 10
185.8015
 20
-10.8589
  0
VERTEX
  8
LAYER_1
 10
185.526
 20
-11.4099
  0
SEQEND
  0
POLYLINE
  8
LAYER_1
 40
0.254
 41
0.254
 66
1
 10
0
 20
0
 30
0
  0
VERTEX
  8
LAYER_1
 10
186.3526
 20
-10.5833
  0
VERTEX
  8
LAYER_1
 10
185.8015
 20
-10.8589
  0
VERTEX
  8
LAYER_1
 10
185.6639
 20
-11.4099
  0
SEQEND
  0
POLYLINE
  8
LAYER_1
 40
0.254
 41
0.254
 66
1
 10
0
 20
0
 30
0
 70
1
  0
VERTEX
  8
LAYER_1
 10
191.0358
 20
-55.0696
  0
VERTEX
  8
LAYER_1
 10
190.8975
 20
-54.6565
  0
VERTEX
  8
LAYER_1
 10
190.622
 20
-54.5189
  0
VERTEX
  8
LAYER_1
 10
190.2089
 20
-54.6565
  0
VERTEX
  8
LAYER_1
 10
190.0709
 20
-55.0696
  0
VERTEX
  8
LAYER_1
 10
190.2089
 20
-55.3451
  0
VERTEX
  8
LAYER_1
 10
190.622
 20
-55.4827
  0
VERTEX
  8
LAYER_1
 10
190.8975
 20
-55.3451
  0
SEQEND
  0
POLYLINE
  8
LAYER_1
 40
0.254
 41
0.254
 66
1
 10
0
 20
0
 30
0
 70
1
  0
VERTEX
  8
LAYER_1
 10
198.4732
 20
-55.0696
  0
VERTEX
  8
LAYER_1
 10
198.3349
 20
-54.6565
  0
VERTEX
  8
LAYER_1
 10
198.0594
 20
-54.5189
  0
VERTEX
  8
LAYER_1
 10
197.7839
 20
-54.6565
  0
VERTEX
  8
LAYER_1
 10
197.6463
 20
-55.0696
  0
VERTEX
  8
LAYER_1
 10
197.7839
 20
-55.3451
  0
VERTEX
  8
LAYER_1
 10
198.0594
 20
-55.4827
  0
VERTEX
  8
LAYER_1
 10
198.3349
 20
-55.3451
  0
SEQEND
  0
POLYLINE
  8
LAYER_1
 40
0.254
 41
0.254
 66
1
 10
0
 20
0
 30
0
 70
1
  0
VERTEX
  8
LAYER_1
 10
191.0358
 20
-59.477
  0
VERTEX
  8
LAYER_1
 10
190.8975
 20
-59.2014
  0
VERTEX
  8
LAYER_1
 10
190.622
 20
-59.0638
  0
VERTEX
  8
LAYER_1
 10
190.2089
 20
-59.2014
  0
VERTEX
  8
LAYER_1
 10
190.0709
 20
-59.477
  0
VERTEX
  8
LAYER_1
 10
190.2089
 20
-59.8901
  0
VERTEX
  8
LAYER_1
 10
190.622
 20
-60.028
  0
VERTEX
  8
LAYER_1
 10
190.8975
 20
-59.8901
  0
SEQEND
  0
POLYLINE
  8
LAYER_1
 40
0.254
 41
0.254
 66
1
 10
0
 20
0
 30
0
 70
1
  0
VERTEX
  8
LAYER_1
 10
198.4732
 20
-59.477
  0
VERTEX
  8
LAYER_1
 10
198.3349
 20
-59.2014
  0
VERTEX
  8
LAYER_1
 10
198.0594
 20
-59.0638
  0
VERTEX
  8
LAYER_1
 10
197.7839
 20
-59.2014
  0
VERTEX
  8
LAYER_1
 10
197.6463
 20
-59.477
  0
VERTEX
  8
LAYER_1
 10
197.7839
 20
-59.8901
  0
VERTEX
  8
LAYER_1
 10
198.0594
 20
-60.028
  0
VERTEX
  8
LAYER_1
 10
198.3349
 20
-59.8901
  0
SEQEND
  0
POLYLINE
  8
LAYER_1
 40
0.254
 41
0.254
 66
1
 10
0
 20
0
 30
0
  0
VERTEX
  8
LAYER_1
 10
185.526
 20
-63.6088
  0
VERTEX
  8
LAYER_1
 10
185.8015
 20
-64.1598
  0
VERTEX
  8
LAYER_1
 10
186.3526
 20
-64.435
  0
SEQEND
  0
POLYLINE
  8
LAYER_1
 40
0.254
 41
0.254
 66
1
 10
0
 20
0
 30
0
  0
VERTEX
  8
LAYER_1
 10
185.6639
 20
-63.6088
  0
VERTEX
  8
LAYER_1
 10
185.8015
 20
-64.2974
  0
VERTEX
  8
LAYER_1
 10
186.3526
 20
-64.435
  0
SEQEND
  0
POLYLINE
  8
LAYER_1
 40
0.254
 41
0.254
 66
1
 10
0
 20
0
 30
0
  0
VERTEX
  8
LAYER_1
 10
185.6639
 20
-63.6088
  0
VERTEX
  8
LAYER_1
 10
185.6639
 20
-11.4099
  0
SEQEND
  0
POLYLINE
  8
LAYER_1
 40
0.254
 41
0.254
 66
1
 10
0
 20
0
 30
0
  0
VERTEX
  8
LAYER_1
 10
185.526
 20
-63.6088
  0
VERTEX
  8
LAYER_1
 10
185.526
 20
-11.4099
  0
SEQEND
  0
POLYLINE
  8
LAYER_1
 40
0.254
 41
0.254
 66
1
 10
0
 20
0
 30
0
 70
1
  0
VERTEX
  8
LAYER_1
 10
288.4092
 20
-64.435
  0
VERTEX
  8
LAYER_1
 10
186.3526
 20
-64.435
  0
SEQEND
  0
POLYLINE
  8
LAYER_1
 40
0.254
 41
0.254
 66
1
 10
0
 20
0
 30
0
 70
1
  0
VERTEX
  8
LAYER_1
 10
186.3526
 20
-10.5833
  0
VERTEX
  8
LAYER_1
 10
288.4092
 20
-10.5833
  0
SEQEND
  0
POLYLINE
  8
LAYER_1
 40
0.254
 41
0.254
 66
1
 10
0
 20
0
 30
0
  0
VERTEX
  8
LAYER_1
 10
168.9987
 20
-197.2132
  0
VERTEX
  8
LAYER_1
 10
169.5494
 20
-196.937
  0
VERTEX
  8
LAYER_1
 10
169.8249
 20
-196.3866
  0
SEQEND
  0
POLYLINE
  8
LAYER_1
 40
0.254
 41
0.254
 66
1
 10
0
 20
0
 30
0
  0
VERTEX
  8
LAYER_1
 10
185.526
 20
-196.3866
  0
VERTEX
  8
LAYER_1
 10
185.8015
 20
-196.937
  0
VERTEX
  8
LAYER_1
 10
186.3526
 20
-197.2132
  0
SEQEND
  0
POLYLINE
  8
LAYER_1
 40
0.254
 41
0.254
 66
1
 10
0
 20
0
 30
0
  0
VERTEX
  8
LAYER_1
 10
168.9987
 20
-197.2132
  0
VERTEX
  8
LAYER_1
 10
105.231
 20
-197.2132
  0
SEQEND
  0
POLYLINE
  8
LAYER_1
 40
0.254
 41
0.254
 66
1
 10
0
 20
0
 30
0
  0
VERTEX
  8
LAYER_1
 10
188.5561
 20
-182.0625
  0
VERTEX
  8
LAYER_1
 10
188.5561
 20
-194.1831
  0
SEQEND
  0
ENDBLK
  0
BLOCK
  8
LAYER_1
  2
AIGNBL01010006
 70
64
 10
0
 20
0
 30
0
  3
AIGNBL01010006
  0
POLYLINE
  8
LAYER_1
 40
0.254
 41
0.254
 66
1
 10
0
 20
0
 30
0
 70
1
  0
VERTEX
  8
LAYER_1
 10
126.8538
 20
-170.2184
  0
VERTEX
  8
LAYER_1
 10
126.7166
 20
-168.2898
  0
VERTEX
  8
LAYER_1
 10
125.8904
 20
-166.6373
  0
VERTEX
  8
LAYER_1
 10
124.7879
 20
-165.1225
  0
VERTEX
  8
LAYER_1
 10
123.2734
 20
-163.8828
  0
VERTEX
  8
LAYER_1
 10
121.4823
 20
-163.1941
  0
VERTEX
  8
LAYER_1
 10
119.5547
 20
-162.919
  0
VERTEX
  8
LAYER_1
 10
117.7636
 20
-163.1941
  0
VERTEX
  8
LAYER_1
 10
115.9732
 20
-163.8828
  0
VERTEX
  8
LAYER_1
 10
114.4584
 20
-165.1225
  0
VERTEX
  8
LAYER_1
 10
113.2187
 20
-166.6373
  0
VERTEX
  8
LAYER_1
 10
112.53
 20
-168.2898
  0
VERTEX
  8
LAYER_1
 10
112.2545
 20
-170.2184
  0
VERTEX
  8
LAYER_1
 10
112.53
 20
-172.1468
  0
VERTEX
  8
LAYER_1
 10
113.2187
 20
-173.9372
  0
VERTEX
  8
LAYER_1
 10
114.4584
 20
-175.452
  0
VERTEX
  8
LAYER_1
 10
115.9732
 20
-176.5538
  0
VERTEX
  8
LAYER_1
 10
117.7636
 20
-177.2424
  0
VERTEX
  8
LAYER_1
 10
119.5547
 20
-177.5179
  0
VERTEX
  8
LAYER_1
 10
121.4823
 20
-177.2424
  0
VERTEX
  8
LAYER_1
 10
123.2734
 20
-176.5538
  0
VERTEX
  8
LAYER_1
 10
124.7879
 20
-175.452
  0
VERTEX
  8
LAYER_1
 10
125.8904
 20
-173.9372
  0
VERTEX
  8
LAYER_1
 10
126.7166
 20
-172.1468
  0
SEQEND
  0
POLYLINE
  8
LAYER_1
 40
0.254
 41
0.254
 66
1
 10
0
 20
0
 30
0
  0
VERTEX
  8
LAYER_1
 10
118.8654
 20
-177.6559
  0
VERTEX
  8
LAYER_1
 10
114.4584
 20
-176.9672
  0
SEQEND
  0
POLYLINE
  8
LAYER_1
 40
0.254
 41
0.254
 66
1
 10
0
 20
0
 30
0
 70
1
  0
VERTEX
  8
LAYER_1
 10
267.6121
 20
-170.2184
  0
VERTEX
  8
LAYER_1
 10
267.3373
 20
-168.5657
  0
VERTEX
  8
LAYER_1
 10
266.6479
 20
-167.0508
  0
VERTEX
  8
LAYER_1
 10
265.4086
 20
-165.9483
  0
VERTEX
  8
LAYER_1
 10
263.8941
 20
-165.1225
  0
VERTEX
  8
LAYER_1
 10
262.2413
 20
-164.8466
  0
VERTEX
  8
LAYER_1
 10
260.5885
 20
-165.1225
  0
VERTEX
  8
LAYER_1
 10
259.0729
 20
-165.9483
  0
VERTEX
  8
LAYER_1
 10
257.8333
 20
-167.0508
  0
VERTEX
  8
LAYER_1
 10
257.0077
 20
-168.5657
  0
VERTEX
  8
LAYER_1
 10
256.7315
 20
-170.2184
  0
VERTEX
  8
LAYER_1
 10
257.0077
 20
-172.0088
  0
VERTEX
  8
LAYER_1
 10
257.8333
 20
-173.3861
  0
VERTEX
  8
LAYER_1
 10
259.0729
 20
-174.6258
  0
VERTEX
  8
LAYER_1
 10
260.5885
 20
-175.452
  0
VERTEX
  8
LAYER_1
 10
262.2413
 20
-175.7276
  0
VERTEX
  8
LAYER_1
 10
263.8941
 20
-175.452
  0
VERTEX
  8
LAYER_1
 10
265.4086
 20
-174.6258
  0
VERTEX
  8
LAYER_1
 10
266.6479
 20
-173.3861
  0
VERTEX
  8
LAYER_1
 10
267.3373
 20
-172.0088
  0
SEQEND
  0
POLYLINE
  8
LAYER_1
 40
0.254
 41
0.254
 66
1
 10
0
 20
0
 30
0
 70
1
  0
VERTEX
  8
LAYER_1
 10
280.2831
 20
-170.2184
  0
VERTEX
  8
LAYER_1
 10
280.0083
 20
-167.1884
  0
VERTEX
  8
LAYER_1
 10
279.1814
 20
-164.1583
  0
VERTEX
  8
LAYER_1
 10
277.8044
 20
-161.2662
  0
VERTEX
  8
LAYER_1
 10
276.014
 20
-158.6492
  0
VERTEX
  8
LAYER_1
 10
273.8106
 20
-156.4457
  0
VERTEX
  8
LAYER_1
 10
271.1932
 20
-154.655
  0
VERTEX
  8
LAYER_1
 10
268.4387
 20
-153.2777
  0
VERTEX
  8
LAYER_1
 10
265.2707
 20
-152.4515
  0
VERTEX
  8
LAYER_1
 10
262.2413
 20
-152.1756
  0
VERTEX
  8
LAYER_1
 10
259.0729
 20
-152.4515
  0
VERTEX
  8
LAYER_1
 10
256.0429
 20
-153.2777
  0
VERTEX
  8
LAYER_1
 10
253.1511
 20
-154.655
  0
VERTEX
  8
LAYER_1
 10
250.5338
 20
-156.4457
  0
VERTEX
  8
LAYER_1
 10
248.3303
 20
-158.6492
  0
VERTEX
  8
LAYER_1
 10
246.5395
 20
-161.2662
  0
VERTEX
  8
LAYER_1
 10
245.3002
 20
-164.1583
  0
VERTEX
  8
LAYER_1
 10
244.4743
 20
-167.1884
  0
VERTEX
  8
LAYER_1
 10
244.1984
 20
-170.2184
  0
VERTEX
  8
LAYER_1
 10
244.4743
 20
-173.3861
  0
VERTEX
  8
LAYER_1
 10
245.3002
 20
-176.4162
  0
VERTEX
  8
LAYER_1
 10
246.5395
 20
-179.3083
  0
VERTEX
  8
LAYER_1
 10
248.3303
 20
-181.9253
  0
VERTEX
  8
LAYER_1
 10
250.5338
 20
-184.1291
  0
VERTEX
  8
LAYER_1
 10
253.1511
 20
-185.9195
  0
VERTEX
  8
LAYER_1
 10
256.0429
 20
-187.1589
  0
VERTEX
  8
LAYER_1
 10
259.0729
 20
-187.9854
  0
VERTEX
  8
LAYER_1
 10
262.2413
 20
-188.261
  0
VERTEX
  8
LAYER_1
 10
265.2707
 20
-187.9854
  0
VERTEX
  8
LAYER_1
 10
268.4387
 20
-187.1589
  0
VERTEX
  8
LAYER_1
 10
271.1932
 20
-185.9195
  0
VERTEX
  8
LAYER_1
 10
273.8106
 20
-184.1291
  0
VERTEX
  8
LAYER_1
 10
276.014
 20
-181.9253
  0
VERTEX
  8
LAYER_1
 10
277.8044
 20
-179.3083
  0
VERTEX
  8
LAYER_1
 10
279.1814
 20
-176.4162
  0
VERTEX
  8
LAYER_1
 10
280.0083
 20
-173.3861
  0
SEQEND
  0
POLYLINE
  8
LAYER_1
 40
0.254
 41
0.254
 66
1
 10
0
 20
0
 30
0
 70
1
  0
VERTEX
  8
LAYER_1
 10
281.9359
 20
-170.2184
  0
VERTEX
  8
LAYER_1
 10
281.6611
 20
-167.1884
  0
VERTEX
  8
LAYER_1
 10
280.9717
 20
-164.1583
  0
VERTEX
  8
LAYER_1
 10
279.7321
 20
-161.4034
  0
VERTEX
  8
LAYER_1
 10
278.0796
 20
-158.6492
  0
VERTEX
  8
LAYER_1
 10
276.1513
 20
-156.3078
  0
VERTEX
  8
LAYER_1
 10
273.8106
 20
-154.3798
  0
VERTEX
  8
LAYER_1
 10
271.1932
 20
-152.727
  0
VERTEX
  8
LAYER_1
 10
268.3008
 20
-151.6252
  0
VERTEX
  8
LAYER_1
 10
265.2707
 20
-150.7987
  0
VERTEX
  8
LAYER_1
 10
262.2413
 20
-150.6611
  0
VERTEX
  8
LAYER_1
 10
259.0729
 20
-150.7987
  0
VERTEX
  8
LAYER_1
 10
256.1808
 20
-151.6252
  0
VERTEX
  8
LAYER_1
 10
253.2883
 20
-152.727
  0
VERTEX
  8
LAYER_1
 10
250.6721
 20
-154.3798
  0
VERTEX
  8
LAYER_1
 10
248.3303
 20
-156.3078
  0
VERTEX
  8
LAYER_1
 10
246.2647
 20
-158.6492
  0
VERTEX
  8
LAYER_1
 10
244.6116
 20
-161.4034
  0
VERTEX
  8
LAYER_1
 10
243.5098
 20
-164.1583
  0
VERTEX
  8
LAYER_1
 10
242.8215
 20
-167.1884
  0
VERTEX
  8
LAYER_1
 10
242.5456
 20
-170.2184
  0
VERTEX
  8
LAYER_1
 10
242.8215
 20
-173.3861
  0
VERTEX
  8
LAYER_1
 10
243.5098
 20
-176.4162
  0
VERTEX
  8
LAYER_1
 10
244.6116
 20
-179.1707
  0
VERTEX
  8
LAYER_1
 10
246.2647
 20
-181.7877
  0
VERTEX
  8
LAYER_1
 10
248.3303
 20
-184.1291
  0
VERTEX
  8
LAYER_1
 10
250.6721
 20
-186.1951
  0
VERTEX
  8
LAYER_1
 10
253.2883
 20
-187.8475
  0
VERTEX
  8
LAYER_1
 10
256.1808
 20
-188.9489
  0
VERTEX
  8
LAYER_1
 10
259.0729
 20
-189.6382
  0
VERTEX
  8
LAYER_1
 10
262.2413
 20
-189.9134
  0
VERTEX
  8
LAYER_1
 10
265.2707
 20
-189.6382
  0
VERTEX
  8
LAYER_1
 10
268.3008
 20
-188.9489
  0
VERTEX
  8
LAYER_1
 10
271.1932
 20
-187.8475
  0
VERTEX
  8
LAYER_1
 10
273.8106
 20
-186.1951
  0
VERTEX
  8
LAYER_1
 10
276.1513
 20
-184.1291
  0
VERTEX
  8
LAYER_1
 10
278.0796
 20
-181.7877
  0
VERTEX
  8
LAYER_1
 10
279.7321
 20
-179.1707
  0
VERTEX
  8
LAYER_1
 10
280.9717
 20
-176.4162
  0
VERTEX
  8
LAYER_1
 10
281.6611
 20
-173.3861
  0
SEQEND
  0
POLYLINE
  8
LAYER_1
 40
0.254
 41
0.254
 66
1
 10
0
 20
0
 30
0
 70
1
  0
VERTEX
  8
LAYER_1
 10
284.5532
 20
-170.2184
  0
VERTEX
  8
LAYER_1
 10
284.2773
 20
-166.7753
  0
VERTEX
  8
LAYER_1
 10
283.4515
 20
-163.3321
  0
VERTEX
  8
LAYER_1
 10
282.2114
 20
-160.1644
  0
VERTEX
  8
LAYER_1
 10
280.2831
 20
-157.1343
  0
VERTEX
  8
LAYER_1
 10
278.0796
 20
-154.3798
  0
VERTEX
  8
LAYER_1
 10
275.3251
 20
-152.1756
  0
VERTEX
  8
LAYER_1
 10
272.295
 20
-150.3856
  0
VERTEX
  8
LAYER_1
 10
269.1277
 20
-149.0083
  0
VERTEX
  8
LAYER_1
 10
265.6845
 20
-148.1821
  0
VERTEX
  8
LAYER_1
 10
262.2413
 20
-147.9065
  0
VERTEX
  8
LAYER_1
 10
258.6598
 20
-148.1821
  0
VERTEX
  8
LAYER_1
 10
255.2166
 20
-149.0083
  0
VERTEX
  8
LAYER_1
 10
252.049
 20
-150.3856
  0
VERTEX
  8
LAYER_1
 10
249.0193
 20
-152.1756
  0
VERTEX
  8
LAYER_1
 10
246.4019
 20
-154.3798
  0
VERTEX
  8
LAYER_1
 10
244.0605
 20
-157.1343
  0
VERTEX
  8
LAYER_1
 10
242.2701
 20
-160.1644
  0
VERTEX
  8
LAYER_1
 10
240.8928
 20
-163.3321
  0
VERTEX
  8
LAYER_1
 10
240.0666
 20
-166.7753
  0
VERTEX
  8
LAYER_1
 10
239.7914
 20
-170.2184
  0
VERTEX
  8
LAYER_1
 10
240.0666
 20
-173.7992
  0
VERTEX
  8
LAYER_1
 10
240.8928
 20
-177.2424
  0
VERTEX
  8
LAYER_1
 10
242.2701
 20
-180.4104
  0
VERTEX
  8
LAYER_1
 10
244.0605
 20
-183.4405
  0
VERTEX
  8
LAYER_1
 10
246.4019
 20
-186.0571
  0
VERTEX
  8
LAYER_1
 10
249.0193
 20
-188.3985
  0
VERTEX
  8
LAYER_1
 10
252.049
 20
-190.1889
  0
VERTEX
  8
LAYER_1
 10
255.2166
 20
-191.5662
  0
VERTEX
  8
LAYER_1
 10
258.6598
 20
-192.3921
  0
VERTEX
  8
LAYER_1
 10
262.2413
 20
-192.6683
  0
VERTEX
  8
LAYER_1
 10
265.6845
 20
-192.3921
  0
VERTEX
  8
LAYER_1
 10
269.1277
 20
-191.5662
  0
VERTEX
  8
LAYER_1
 10
272.295
 20
-190.1889
  0
VERTEX
  8
LAYER_1
 10
275.3251
 20
-188.3985
  0
VERTEX
  8
LAYER_1
 10
278.0796
 20
-186.0571
  0
VERTEX
  8
LAYER_1
 10
280.2831
 20
-183.4405
  0
VERTEX
  8
LAYER_1
 10
282.2114
 20
-180.4104
  0
VERTEX
  8
LAYER_1
 10
283.4515
 20
-177.2424
  0
VERTEX
  8
LAYER_1
 10
284.2773
 20
-173.7992
  0
SEQEND
  0
POLYLINE
  8
LAYER_1
 40
0.254
 41
0.254
 66
1
 10
0
 20
0
 30
0
  0
VERTEX
  8
LAYER_1
 10
162.1123
 20
-165.1225
  0
VERTEX
  8
LAYER_1
 10
162.8009
 20
-169.5298
  0
SEQEND
  0
POLYLINE
  8
LAYER_1
 40
0.254
 41
0.254
 66
1
 10
0
 20
0
 30
0
  0
VERTEX
  8
LAYER_1
 10
162.8009
 20
-170.9071
  0
VERTEX
  8
LAYER_1
 10
162.1123
 20
-175.3144
  0
SEQEND
  0
POLYLINE
  8
LAYER_1
 40
0.254
 41
0.254
 66
1
 10
0
 20
0
 30
0
  0
VERTEX
  8
LAYER_1
 10
147.6509
 20
-176.4162
  0
VERTEX
  8
LAYER_1
 10
147.6509
 20
-164.0207
  0
SEQEND
  0
POLYLINE
  8
LAYER_1
 40
0.254
 41
0.254
 66
1
 10
0
 20
0
 30
0
  0
VERTEX
  8
LAYER_1
 10
161.4237
 20
-162.6434
  0
VERTEX
  8
LAYER_1
 10
149.3034
 20
-162.6434
  0
SEQEND
  0
POLYLINE
  8
LAYER_1
 40
0.254
 41
0.254
 66
1
 10
0
 20
0
 30
0
  0
VERTEX
  8
LAYER_1
 10
149.3034
 20
-162.5052
  0
VERTEX
  8
LAYER_1
 10
161.4237
 20
-162.5052
  0
SEQEND
  0
POLYLINE
  8
LAYER_1
 40
0.254
 41
0.254
 66
1
 10
0
 20
0
 30
0
  0
VERTEX
  8
LAYER_1
 10
154.6749
 20
-162.781
  0
VERTEX
  8
LAYER_1
 10
156.1901
 20
-162.781
  0
SEQEND
  0
POLYLINE
  8
LAYER_1
 40
0.254
 41
0.254
 66
1
 10
0
 20
0
 30
0
  0
VERTEX
  8
LAYER_1
 10
161.6992
 20
-162.3679
  0
VERTEX
  8
LAYER_1
 10
149.1658
 20
-162.3679
  0
SEQEND
  0
POLYLINE
  8
LAYER_1
 40
0.254
 41
0.254
 66
1
 10
0
 20
0
 30
0
 70
1
  0
VERTEX
  8
LAYER_1
 10
163.0765
 20
-176.2779
  0
VERTEX
  8
LAYER_1
 10
163.0765
 20
-164.1583
  0
SEQEND
  0
POLYLINE
  8
LAYER_1
 40
0.254
 41
0.254
 66
1
 10
0
 20
0
 30
0
  0
VERTEX
  8
LAYER_1
 10
160.4595
 20
-176.9672
  0
VERTEX
  8
LAYER_1
 10
156.1901
 20
-177.6559
  0
SEQEND
  0
POLYLINE
  8
LAYER_1
 40
0.254
 41
0.254
 66
1
 10
0
 20
0
 30
0
  0
VERTEX
  8
LAYER_1
 10
162.8009
 20
-169.5298
  0
VERTEX
  8
LAYER_1
 10
162.8009
 20
-170.9071
  0
SEQEND
  0
POLYLINE
  8
LAYER_1
 40
0.254
 41
0.254
 66
1
 10
0
 20
0
 30
0
  0
VERTEX
  8
LAYER_1
 10
150.4055
 20
-175.3144
  0
VERTEX
  8
LAYER_1
 10
151.7827
 20
-176.4162
  0
VERTEX
  8
LAYER_1
 10
153.5731
 20
-177.1048
  0
VERTEX
  8
LAYER_1
 10
155.3635
 20
-177.3803
  0
VERTEX
  8
LAYER_1
 10
157.2918
 20
-177.1048
  0
VERTEX
  8
LAYER_1
 10
158.9446
 20
-176.4162
  0
VERTEX
  8
LAYER_1
 10
160.4595
 20
-175.3144
  0
SEQEND
  0
POLYLINE
  8
LAYER_1
 40
0.254
 41
0.254
 66
1
 10
0
 20
0
 30
0
  0
VERTEX
  8
LAYER_1
 10
156.1901
 20
-177.6559
  0
VERTEX
  8
LAYER_1
 10
154.6749
 20
-177.6559
  0
VERTEX
  8
LAYER_1
 10
150.2682
 20
-176.9672
  0
SEQEND
  0
POLYLINE
  8
LAYER_1
 40
0.254
 41
0.254
 66
1
 10
0
 20
0
 30
0
  0
VERTEX
  8
LAYER_1
 10
149.3034
 20
-164.7094
  0
VERTEX
  8
LAYER_1
 10
148.8902
 20
-164.8466
  0
VERTEX
  8
LAYER_1
 10
148.7527
 20
-165.1225
  0
SEQEND
  0
POLYLINE
  8
LAYER_1
 40
0.254
 41
0.254
 66
1
 10
0
 20
0
 30
0
  0
VERTEX
  8
LAYER_1
 10
147.9261
 20
-169.5298
  0
VERTEX
  8
LAYER_1
 10
148.7527
 20
-165.1225
  0
SEQEND
  0
POLYLINE
  8
LAYER_1
 40
0.254
 41
0.254
 66
1
 10
0
 20
0
 30
0
 70
1
  0
VERTEX
  8
LAYER_1
 10
149.5789
 20
-164.1583
  0
VERTEX
  8
LAYER_1
 10
149.5789
 20
-164.0207
  0
VERTEX
  8
LAYER_1
 10
149.3034
 20
-163.8828
  0
VERTEX
  8
LAYER_1
 10
149.1658
 20
-164.0207
  0
VERTEX
  8
LAYER_1
 10
149.0282
 20
-164.1583
  0
VERTEX
  8
LAYER_1
 10
149.1658
 20
-164.2962
  0
VERTEX
  8
LAYER_1
 10
149.3034
 20
-164.4338
  0
VERTEX
  8
LAYER_1
 10
149.5789
 20
-164.2962
  0
SEQEND
  0
POLYLINE
  8
LAYER_1
 40
0.254
 41
0.254
 66
1
 10
0
 20
0
 30
0
 70
1
  0
VERTEX
  8
LAYER_1
 10
149.5789
 20
-176.2779
  0
VERTEX
  8
LAYER_1
 10
149.5789
 20
-176.1407
  0
VERTEX
  8
LAYER_1
 10
149.3034
 20
-176.0031
  0
VERTEX
  8
LAYER_1
 10
149.1658
 20
-176.1407
  0
VERTEX
  8
LAYER_1
 10
149.0282
 20
-176.2779
  0
VERTEX
  8
LAYER_1
 10
149.1658
 20
-176.5538
  0
VERTEX
  8
LAYER_1
 10
149.3034
 20
-176.5538
  0
VERTEX
  8
LAYER_1
 10
149.5789
 20
-176.5538
  0
SEQEND
  0
POLYLINE
  8
LAYER_1
 40
0.254
 41
0.254
 66
1
 10
0
 20
0
 30
0
  0
VERTEX
  8
LAYER_1
 10
148.7527
 20
-175.3144
  0
VERTEX
  8
LAYER_1
 10
147.9261
 20
-170.9071
  0
SEQEND
  0
POLYLINE
  8
LAYER_1
 40
0.254
 41
0.254
 66
1
 10
0
 20
0
 30
0
  0
VERTEX
  8
LAYER_1
 10
148.7527
 20
-175.3144
  0
VERTEX
  8
LAYER_1
 10
148.8902
 20
-175.59
  0
VERTEX
  8
LAYER_1
 10
149.3034
 20
-175.7276
  0
SEQEND
  0
POLYLINE
  8
LAYER_1
 40
0.254
 41
0.254
 66
1
 10
0
 20
0
 30
0
 70
1
  0
VERTEX
  8
LAYER_1
 10
147.7885
 20
-164.1583
  0
VERTEX
  8
LAYER_1
 10
147.7885
 20
-176.2779
  0
SEQEND
  0
POLYLINE
  8
LAYER_1
 40
0.254
 41
0.254
 66
1
 10
0
 20
0
 30
0
  0
VERTEX
  8
LAYER_1
 10
147.9261
 20
-170.9071
  0
VERTEX
  8
LAYER_1
 10
147.9261
 20
-169.5298
  0
SEQEND
  0
POLYLINE
  8
LAYER_1
 40
0.254
 41
0.254
 66
1
 10
0
 20
0
 30
0
  0
VERTEX
  8
LAYER_1
 10
149.8544
 20
-176.4162
  0
VERTEX
  8
LAYER_1
 10
149.9927
 20
-176.6917
  0
VERTEX
  8
LAYER_1
 10
150.2682
 20
-176.9672
  0
SEQEND
  0
POLYLINE
  8
LAYER_1
 40
0.254
 41
0.254
 66
1
 10
0
 20
0
 30
0
  0
VERTEX
  8
LAYER_1
 10
152.4714
 20
-167.1884
  0
VERTEX
  8
LAYER_1
 10
152.4714
 20
-173.2485
  0
SEQEND
  0
POLYLINE
  8
LAYER_1
 40
0.254
 41
0.254
 66
1
 10
0
 20
0
 30
0
  0
VERTEX
  8
LAYER_1
 10
149.3034
 20
-164.7094
  0
VERTEX
  8
LAYER_1
 10
149.7172
 20
-164.5714
  0
VERTEX
  8
LAYER_1
 10
149.8544
 20
-164.1583
  0
SEQEND
  0
POLYLINE
  8
LAYER_1
 40
0.254
 41
0.254
 66
1
 10
0
 20
0
 30
0
  0
VERTEX
  8
LAYER_1
 10
149.8544
 20
-176.4162
  0
VERTEX
  8
LAYER_1
 10
149.7172
 20
-175.8651
  0
VERTEX
  8
LAYER_1
 10
149.3034
 20
-175.7276
  0
SEQEND
  0
POLYLINE
  8
LAYER_1
 40
0.254
 41
0.254
 66
1
 10
0
 20
0
 30
0
  0
VERTEX
  8
LAYER_1
 10
150.4055
 20
-165.1225
  0
VERTEX
  8
LAYER_1
 10
149.1658
 20
-166.6373
  0
VERTEX
  8
LAYER_1
 10
148.4771
 20
-168.4281
  0
VERTEX
  8
LAYER_1
 10
148.2016
 20
-170.2184
  0
VERTEX
  8
LAYER_1
 10
148.4771
 20
-172.1468
  0
VERTEX
  8
LAYER_1
 10
149.1658
 20
-173.7992
  0
VERTEX
  8
LAYER_1
 10
150.4055
 20
-175.3144
  0
SEQEND
  0
POLYLINE
  8
LAYER_1
 40
0.254
 41
0.254
 66
1
 10
0
 20
0
 30
0
  0
VERTEX
  8
LAYER_1
 10
162.1123
 20
-165.1225
  0
VERTEX
  8
LAYER_1
 10
161.8368
 20
-164.8466
  0
VERTEX
  8
LAYER_1
 10
161.5612
 20
-164.7094
  0
SEQEND
  0
POLYLINE
  8
LAYER_1
 40
0.254
 41
0.254
 66
1
 10
0
 20
0
 30
0
  0
VERTEX
  8
LAYER_1
 10
160.8733
 20
-164.1583
  0
VERTEX
  8
LAYER_1
 10
161.1488
 20
-164.5714
  0
VERTEX
  8
LAYER_1
 10
161.5612
 20
-164.7094
  0
SEQEND
  0
POLYLINE
  8
LAYER_1
 40
0.254
 41
0.254
 66
1
 10
0
 20
0
 30
0
 70
1
  0
VERTEX
  8
LAYER_1
 10
161.6992
 20
-164.1583
  0
VERTEX
  8
LAYER_1
 10
161.6992
 20
-164.0207
  0
VERTEX
  8
LAYER_1
 10
161.4237
 20
-163.8828
  0
VERTEX
  8
LAYER_1
 10
161.2857
 20
-164.0207
  0
VERTEX
  8
LAYER_1
 10
161.1488
 20
-164.1583
  0
VERTEX
  8
LAYER_1
 10
161.2857
 20
-164.2962
  0
VERTEX
  8
LAYER_1
 10
161.4237
 20
-164.4338
  0
VERTEX
  8
LAYER_1
 10
161.6992
 20
-164.2962
  0
SEQEND
  0
POLYLINE
  8
LAYER_1
 40
0.254
 41
0.254
 66
1
 10
0
 20
0
 30
0
  0
VERTEX
  8
LAYER_1
 10
161.5612
 20
-175.7276
  0
VERTEX
  8
LAYER_1
 10
161.8368
 20
-175.59
  0
VERTEX
  8
LAYER_1
 10
162.1123
 20
-175.3144
  0
SEQEND
  0
POLYLINE
  8
LAYER_1
 40
0.254
 41
0.254
 66
1
 10
0
 20
0
 30
0
 70
1
  0
VERTEX
  8
LAYER_1
 10
161.6992
 20
-176.2779
  0
VERTEX
  8
LAYER_1
 10
161.6992
 20
-176.1407
  0
VERTEX
  8
LAYER_1
 10
161.4237
 20
-176.0031
  0
VERTEX
  8
LAYER_1
 10
161.2857
 20
-176.1407
  0
VERTEX
  8
LAYER_1
 10
161.1488
 20
-176.2779
  0
VERTEX
  8
LAYER_1
 10
161.2857
 20
-176.5538
  0
VERTEX
  8
LAYER_1
 10
161.4237
 20
-176.5538
  0
VERTEX
  8
LAYER_1
 10
161.6992
 20
-176.5538
  0
SEQEND
  0
POLYLINE
  8
LAYER_1
 40
0.254
 41
0.254
 66
1
 10
0
 20
0
 30
0
  0
VERTEX
  8
LAYER_1
 10
161.5612
 20
-175.7276
  0
VERTEX
  8
LAYER_1
 10
161.1488
 20
-175.8651
  0
VERTEX
  8
LAYER_1
 10
160.8733
 20
-176.4162
  0
SEQEND
  0
POLYLINE
  8
LAYER_1
 40
0.254
 41
0.254
 66
1
 10
0
 20
0
 30
0
  0
VERTEX
  8
LAYER_1
 10
160.4595
 20
-176.9672
  0
VERTEX
  8
LAYER_1
 10
160.8733
 20
-176.6917
  0
VERTEX
  8
LAYER_1
 10
160.8733
 20
-176.4162
  0
SEQEND
  0
POLYLINE
  8
LAYER_1
 40
0.254
 41
0.254
 66
1
 10
0
 20
0
 30
0
  0
VERTEX
  8
LAYER_1
 10
160.4595
 20
-175.3144
  0
VERTEX
  8
LAYER_1
 10
161.5612
 20
-173.7992
  0
VERTEX
  8
LAYER_1
 10
162.3878
 20
-172.1468
  0
VERTEX
  8
LAYER_1
 10
162.5254
 20
-170.2184
  0
VERTEX
  8
LAYER_1
 10
162.3878
 20
-168.4281
  0
VERTEX
  8
LAYER_1
 10
161.5612
 20
-166.6373
  0
VERTEX
  8
LAYER_1
 10
160.4595
 20
-165.1225
  0
SEQEND
  0
POLYLINE
  8
LAYER_1
 40
0.254
 41
0.254
 66
1
 10
0
 20
0
 30
0
  0
VERTEX
  8
LAYER_1
 10
152.4714
 20
-167.1884
  0
VERTEX
  8
LAYER_1
 10
158.3936
 20
-167.1884
  0
VERTEX
  8
LAYER_1
 10
158.3936
 20
-173.2485
  0
SEQEND
  0
POLYLINE
  8
LAYER_1
 40
0.254
 41
0.254
 66
1
 10
0
 20
0
 30
0
  0
VERTEX
  8
LAYER_1
 10
152.4714
 20
-173.2485
  0
VERTEX
  8
LAYER_1
 10
158.3936
 20
-173.2485
  0
SEQEND
  0
POLYLINE
  8
LAYER_1
 40
0.254
 41
0.254
 66
1
 10
0
 20
0
 30
0
 70
1
  0
VERTEX
  8
LAYER_1
 10
162.8009
 20
-170.2184
  0
VERTEX
  8
LAYER_1
 10
162.5254
 20
-168.2898
  0
VERTEX
  8
LAYER_1
 10
161.6992
 20
-166.6373
  0
VERTEX
  8
LAYER_1
 10
160.5978
 20
-165.1225
  0
VERTEX
  8
LAYER_1
 10
159.0822
 20
-163.8828
  0
VERTEX
  8
LAYER_1
 10
157.2918
 20
-163.1941
  0
VERTEX
  8
LAYER_1
 10
155.3635
 20
-162.919
  0
VERTEX
  8
LAYER_1
 10
153.5731
 20
-163.1941
  0
VERTEX
  8
LAYER_1
 10
151.7827
 20
-163.8828
  0
VERTEX
  8
LAYER_1
 10
150.2682
 20
-165.1225
  0
VERTEX
  8
LAYER_1
 10
149.0282
 20
-166.6373
  0
VERTEX
  8
LAYER_1
 10
148.3395
 20
-168.2898
  0
VERTEX
  8
LAYER_1
 10
148.064
 20
-170.2184
  0
VERTEX
  8
LAYER_1
 10
148.3395
 20
-172.1468
  0
VERTEX
  8
LAYER_1
 10
149.0282
 20
-173.9372
  0
VERTEX
  8
LAYER_1
 10
150.2682
 20
-175.452
  0
VERTEX
  8
LAYER_1
 10
151.7827
 20
-176.5538
  0
VERTEX
  8
LAYER_1
 10
153.5731
 20
-177.2424
  0
VERTEX
  8
LAYER_1
 10
155.3635
 20
-177.5179
  0
VERTEX
  8
LAYER_1
 10
157.2918
 20
-177.2424
  0
VERTEX
  8
LAYER_1
 10
159.0822
 20
-176.5538
  0
VERTEX
  8
LAYER_1
 10
160.5978
 20
-175.452
  0
VERTEX
  8
LAYER_1
 10
161.6992
 20
-173.9372
  0
VERTEX
  8
LAYER_1
 10
162.5254
 20
-172.1468
  0
SEQEND
  0
POLYLINE
  8
LAYER_1
 40
0.254
 41
0.254
 66
1
 10
0
 20
0
 30
0
  0
VERTEX
  8
LAYER_1
 10
149.1658
 20
-162.3679
  0
VERTEX
  8
LAYER_1
 10
148.3395
 20
-162.6434
  0
VERTEX
  8
LAYER_1
 10
147.7885
 20
-163.1941
  0
VERTEX
  8
LAYER_1
 10
147.6509
 20
-164.0207
  0
SEQEND
  0
ENDBLK
  0
BLOCK
  8
LAYER_1
  2
AIGNBL01010007
 70
64
 10
0
 20
0
 30
0
  3
AIGNBL01010007
  0
POLYLINE
  8
LAYER_1
 40
0.254
 41
0.254
 66
1
 10
0
 20
0
 30
0
  0
VERTEX
  8
LAYER_1
 10
275.7381
 20
-146.3913
  0
VERTEX
  8
LAYER_1
 10
286.2056
 20
-156.7212
  0
SEQEND
  0
POLYLINE
  8
LAYER_1
 40
0.254
 41
0.254
 66
1
 10
0
 20
0
 30
0
  0
VERTEX
  8
LAYER_1
 10
276.9778
 20
-194.1831
  0
VERTEX
  8
LAYER_1
 10
286.2056
 20
-184.9553
  0
SEQEND
  0
POLYLINE
  8
LAYER_1
 40
0.254
 41
0.254
 66
1
 10
0
 20
0
 30
0
  0
VERTEX
  8
LAYER_1
 10
188.556
 20
-183.7156
  0
VERTEX
  8
LAYER_1
 10
199.0238
 20
-194.1831
  0
SEQEND
  0
POLYLINE
  8
LAYER_1
 40
0.254
 41
0.254
 66
1
 10
0
 20
0
 30
0
  0
VERTEX
  8
LAYER_1
 10
199.0238
 20
-146.3913
  0
VERTEX
  8
LAYER_1
 10
188.556
 20
-156.7212
  0
SEQEND
  0
POLYLINE
  8
LAYER_1
 40
0.254
 41
0.254
 66
1
 10
0
 20
0
 30
0
  0
VERTEX
  8
LAYER_1
 10
236.4854
 20
-195.4228
  0
VERTEX
  8
LAYER_1
 10
236.4854
 20
-145.1519
  0
SEQEND
  0
POLYLINE
  8
LAYER_1
 40
0.254
 41
0.254
 66
1
 10
0
 20
0
 30
0
  0
VERTEX
  8
LAYER_1
 10
238.2762
 20
-195.4228
  0
VERTEX
  8
LAYER_1
 10
238.2762
 20
-145.1519
  0
SEQEND
  0
POLYLINE
  8
LAYER_1
 40
0.254
 41
0.254
 66
1
 10
0
 20
0
 30
0
  0
VERTEX
  8
LAYER_1
 10
201.5025
 20
-146.3913
  0
VERTEX
  8
LAYER_1
 10
188.556
 20
-159.3378
  0
SEQEND
  0
POLYLINE
  8
LAYER_1
 40
0.254
 41
0.254
 66
1
 10
0
 20
0
 30
0
  0
VERTEX
  8
LAYER_1
 10
188.556
 20
-181.2366
  0
VERTEX
  8
LAYER_1
 10
201.5025
 20
-194.1831
  0
SEQEND
  0
POLYLINE
  8
LAYER_1
 40
0.254
 41
0.254
 66
1
 10
0
 20
0
 30
0
  0
VERTEX
  8
LAYER_1
 10
273.1218
 20
-146.3913
  0
VERTEX
  8
LAYER_1
 10
286.2056
 20
-159.3378
  0
SEQEND
  0
POLYLINE
  8
LAYER_1
 40
0.254
 41
0.254
 66
1
 10
0
 20
0
 30
0
  0
VERTEX
  8
LAYER_1
 10
274.3615
 20
-194.1831
  0
VERTEX
  8
LAYER_1
 10
286.2056
 20
-182.4763
  0
SEQEND
  0
POLYLINE
  8
LAYER_1
 40
0.254
 41
0.254
 66
1
 10
0
 20
0
 30
0
  0
VERTEX
  8
LAYER_1
 10
226.0186
 20
-146.3913
  0
VERTEX
  8
LAYER_1
 10
236.4854
 20
-156.7212
  0
SEQEND
  0
POLYLINE
  8
LAYER_1
 40
0.254
 41
0.254
 66
1
 10
0
 20
0
 30
0
  0
VERTEX
  8
LAYER_1
 10
238.2762
 20
-156.7212
  0
VERTEX
  8
LAYER_1
 10
248.7433
 20
-146.3913
  0
SEQEND
  0
POLYLINE
  8
LAYER_1
 40
0.254
 41
0.254
 66
1
 10
0
 20
0
 30
0
  0
VERTEX
  8
LAYER_1
 10
236.4854
 20
-183.7156
  0
VERTEX
  8
LAYER_1
 10
226.0186
 20
-194.1831
  0
SEQEND
  0
POLYLINE
  8
LAYER_1
 40
0.254
 41
0.254
 66
1
 10
0
 20
0
 30
0
  0
VERTEX
  8
LAYER_1
 10
238.2762
 20
-183.7156
  0
VERTEX
  8
LAYER_1
 10
248.7433
 20
-194.1831
  0
SEQEND
  0
POLYLINE
  8
LAYER_1
 40
0.254
 41
0.254
 66
1
 10
0
 20
0
 30
0
  0
VERTEX
  8
LAYER_1
 10
236.4854
 20
-181.2366
  0
VERTEX
  8
LAYER_1
 10
223.5389
 20
-194.1831
  0
SEQEND
  0
POLYLINE
  8
LAYER_1
 40
0.254
 41
0.254
 66
1
 10
0
 20
0
 30
0
  0
VERTEX
  8
LAYER_1
 10
238.2762
 20
-181.2366
  0
VERTEX
  8
LAYER_1
 10
251.2223
 20
-194.1831
  0
SEQEND
  0
POLYLINE
  8
LAYER_1
 40
0.254
 41
0.254
 66
1
 10
0
 20
0
 30
0
  0
VERTEX
  8
LAYER_1
 10
238.2762
 20
-159.3378
  0
VERTEX
  8
LAYER_1
 10
251.2223
 20
-146.3913
  0
SEQEND
  0
POLYLINE
  8
LAYER_1
 40
0.254
 41
0.254
 66
1
 10
0
 20
0
 30
0
  0
VERTEX
  8
LAYER_1
 10
223.5389
 20
-146.3913
  0
VERTEX
  8
LAYER_1
 10
236.4854
 20
-159.3378
  0
SEQEND
  0
POLYLINE
  8
LAYER_1
 40
0.254
 41
0.254
 66
1
 10
0
 20
0
 30
0
  0
VERTEX
  8
LAYER_1
 10
363.9637
 20
-196.2491
  0
VERTEX
  8
LAYER_1
 10
363.9637
 20
-136.7504
  0
SEQEND
  0
POLYLINE
  8
LAYER_1
 40
0.254
 41
0.254
 66
1
 10
0
 20
0
 30
0
  0
VERTEX
  8
LAYER_1
 10
299.3683
 20
-196.2491
  0
VERTEX
  8
LAYER_1
 10
299.3683
 20
-136.7504
  0
SEQEND
  0
POLYLINE
  8
LAYER_1
 40
0.254
 41
0.254
 66
1
 10
0
 20
0
 30
0
  0
VERTEX
  8
LAYER_1
 10
362.1726
 20
-136.7504
  0
VERTEX
  8
LAYER_1
 10
301.1587
 20
-136.7504
  0
SEQEND
  0
POLYLINE
  8
LAYER_1
 40
0.254
 41
0.254
 66
1
 10
0
 20
0
 30
0
 70
1
  0
VERTEX
  8
LAYER_1
 10
284.6911
 20
-55.0696
  0
VERTEX
  8
LAYER_1
 10
284.5531
 20
-54.6565
  0
VERTEX
  8
LAYER_1
 10
284.2773
 20
-54.5186
  0
VERTEX
  8
LAYER_1
 10
283.8641
 20
-54.6565
  0
VERTEX
  8
LAYER_1
 10
283.7262
 20
-55.0696
  0
VERTEX
  8
LAYER_1
 10
283.8641
 20
-55.3451
  0
VERTEX
  8
LAYER_1
 10
284.2773
 20
-55.4827
  0
VERTEX
  8
LAYER_1
 10
284.5531
 20
-55.3451
  0
VERTEX
  8
LAYER_1
 10
284.6911
 20
-55.0696
  0
VERTEX
  8
LAYER_1
 10
284.5531
 20
-54.6565
  0
VERTEX
  8
LAYER_1
 10
284.2773
 20
-54.5186
  0
VERTEX
  8
LAYER_1
 10
283.8641
 20
-54.6565
  0
VERTEX
  8
LAYER_1
 10
283.7262
 20
-55.0696
  0
VERTEX
  8
LAYER_1
 10
283.8641
 20
-55.3451
  0
VERTEX
  8
LAYER_1
 10
284.2773
 20
-55.4827
  0
VERTEX
  8
LAYER_1
 10
284.5531
 20
-55.3451
  0
SEQEND
  0
POLYLINE
  8
LAYER_1
 40
0.254
 41
0.254
 66
1
 10
0
 20
0
 30
0
 70
1
  0
VERTEX
  8
LAYER_1
 10
284.6911
 20
-59.477
  0
VERTEX
  8
LAYER_1
 10
284.5531
 20
-59.2014
  0
VERTEX
  8
LAYER_1
 10
284.2773
 20
-59.0638
  0
VERTEX
  8
LAYER_1
 10
283.8641
 20
-59.2014
  0
VERTEX
  8
LAYER_1
 10
283.7262
 20
-59.477
  0
VERTEX
  8
LAYER_1
 10
283.8641
 20
-59.8901
  0
VERTEX
  8
LAYER_1
 10
284.2773
 20
-60.028
  0
VERTEX
  8
LAYER_1
 10
284.5531
 20
-59.8901
  0
VERTEX
  8
LAYER_1
 10
284.6911
 20
-59.477
  0
VERTEX
  8
LAYER_1
 10
284.5531
 20
-59.2014
  0
VERTEX
  8
LAYER_1
 10
284.2773
 20
-59.0638
  0
VERTEX
  8
LAYER_1
 10
283.8641
 20
-59.2014
  0
VERTEX
  8
LAYER_1
 10
283.7262
 20
-59.477
  0
VERTEX
  8
LAYER_1
 10
283.8641
 20
-59.8901
  0
VERTEX
  8
LAYER_1
 10
284.2773
 20
-60.028
  0
VERTEX
  8
LAYER_1
 10
284.5531
 20
-59.8901
  0
SEQEND
  0
POLYLINE
  8
LAYER_1
 40
0.254
 41
0.254
 66
1
 10
0
 20
0
 30
0
 70
1
  0
VERTEX
  8
LAYER_1
 10
277.2537
 20
-55.0696
  0
VERTEX
  8
LAYER_1
 10
277.1161
 20
-54.6565
  0
VERTEX
  8
LAYER_1
 10
276.7023
 20
-54.5186
  0
VERTEX
  8
LAYER_1
 10
276.4267
 20
-54.6565
  0
VERTEX
  8
LAYER_1
 10
276.2891
 20
-55.0696
  0
VERTEX
  8
LAYER_1
 10
276.4267
 20
-55.3451
  0
VERTEX
  8
LAYER_1
 10
276.7023
 20
-55.4827
  0
VERTEX
  8
LAYER_1
 10
277.1161
 20
-55.3451
  0
VERTEX
  8
LAYER_1
 10
277.2537
 20
-55.0696
  0
VERTEX
  8
LAYER_1
 10
277.1161
 20
-54.6565
  0
VERTEX
  8
LAYER_1
 10
276.7023
 20
-54.5186
  0
VERTEX
  8
LAYER_1
 10
276.4267
 20
-54.6565
  0
VERTEX
  8
LAYER_1
 10
276.2891
 20
-55.0696
  0
VERTEX
  8
LAYER_1
 10
276.4267
 20
-55.3451
  0
VERTEX
  8
LAYER_1
 10
276.7023
 20
-55.4827
  0
VERTEX
  8
LAYER_1
 10
277.1161
 20
-55.3451
  0
SEQEND
  0
POLYLINE
  8
LAYER_1
 40
0.254
 41
0.254
 66
1
 10
0
 20
0
 30
0
 70
1
  0
VERTEX
  8
LAYER_1
 10
277.2537
 20
-59.477
  0
VERTEX
  8
LAYER_1
 10
277.1161
 20
-59.2014
  0
VERTEX
  8
LAYER_1
 10
276.7023
 20
-59.0638
  0
VERTEX
  8
LAYER_1
 10
276.4267
 20
-59.2014
  0
VERTEX
  8
LAYER_1
 10
276.2891
 20
-59.477
  0
VERTEX
  8
LAYER_1
 10
276.4267
 20
-59.8901
  0
VERTEX
  8
LAYER_1
 10
276.7023
 20
-60.028
  0
VERTEX
  8
LAYER_1
 10
277.1161
 20
-59.8901
  0
VERTEX
  8
LAYER_1
 10
277.2537
 20
-59.477
  0
VERTEX
  8
LAYER_1
 10
277.1161
 20
-59.2014
  0
VERTEX
  8
LAYER_1
 10
276.7023
 20
-59.0638
  0
VERTEX
  8
LAYER_1
 10
276.4267
 20
-59.2014
  0
VERTEX
  8
LAYER_1
 10
276.2891
 20
-59.477
  0
VERTEX
  8
LAYER_1
 10
276.4267
 20
-59.8901
  0
VERTEX
  8
LAYER_1
 10
276.7023
 20
-60.028
  0
VERTEX
  8
LAYER_1
 10
277.1161
 20
-59.8901
  0
SEQEND
  0
POLYLINE
  8
LAYER_1
 40
0.254
 41
0.254
 66
1
 10
0
 20
0
 30
0
 70
1
  0
VERTEX
  8
LAYER_1
 10
191.0357
 20
-55.0696
  0
VERTEX
  8
LAYER_1
 10
190.8974
 20
-54.6565
  0
VERTEX
  8
LAYER_1
 10
190.6219
 20
-54.5186
  0
VERTEX
  8
LAYER_1
 10
190.2088
 20
-54.6565
  0
VERTEX
  8
LAYER_1
 10
190.0712
 20
-55.0696
  0
VERTEX
  8
LAYER_1
 10
190.2088
 20
-55.3451
  0
VERTEX
  8
LAYER_1
 10
190.6219
 20
-55.4827
  0
VERTEX
  8
LAYER_1
 10
190.8974
 20
-55.3451
  0
SEQEND
  0
POLYLINE
  8
LAYER_1
 40
0.254
 41
0.254
 66
1
 10
0
 20
0
 30
0
 70
1
  0
VERTEX
  8
LAYER_1
 10
198.4731
 20
-55.0696
  0
VERTEX
  8
LAYER_1
 10
198.3348
 20
-54.6565
  0
VERTEX
  8
LAYER_1
 10
198.0593
 20
-54.5186
  0
VERTEX
  8
LAYER_1
 10
197.7838
 20
-54.6565
  0
VERTEX
  8
LAYER_1
 10
197.6462
 20
-55.0696
  0
VERTEX
  8
LAYER_1
 10
197.7838
 20
-55.3451
  0
VERTEX
  8
LAYER_1
 10
198.0593
 20
-55.4827
  0
VERTEX
  8
LAYER_1
 10
198.3348
 20
-55.3451
  0
SEQEND
  0
POLYLINE
  8
LAYER_1
 40
0.254
 41
0.254
 66
1
 10
0
 20
0
 30
0
 70
1
  0
VERTEX
  8
LAYER_1
 10
198.4731
 20
-59.477
  0
VERTEX
  8
LAYER_1
 10
198.3348
 20
-59.2014
  0
VERTEX
  8
LAYER_1
 10
198.0593
 20
-59.0638
  0
VERTEX
  8
LAYER_1
 10
197.7838
 20
-59.2014
  0
VERTEX
  8
LAYER_1
 10
197.6462
 20
-59.477
  0
VERTEX
  8
LAYER_1
 10
197.7838
 20
-59.8901
  0
VERTEX
  8
LAYER_1
 10
198.0593
 20
-60.028
  0
VERTEX
  8
LAYER_1
 10
198.3348
 20
-59.8901
  0
SEQEND
  0
POLYLINE
  8
LAYER_1
 40
0.254
 41
0.254
 66
1
 10
0
 20
0
 30
0
 70
1
  0
VERTEX
  8
LAYER_1
 10
191.0357
 20
-59.477
  0
VERTEX
  8
LAYER_1
 10
190.8974
 20
-59.2014
  0
VERTEX
  8
LAYER_1
 10
190.6219
 20
-59.0638
  0
VERTEX
  8
LAYER_1
 10
190.2088
 20
-59.2014
  0
VERTEX
  8
LAYER_1
 10
190.0712
 20
-59.477
  0
VERTEX
  8
LAYER_1
 10
190.2088
 20
-59.8901
  0
VERTEX
  8
LAYER_1
 10
190.6219
 20
-60.028
  0
VERTEX
  8
LAYER_1
 10
190.8974
 20
-59.8901
  0
SEQEND
  0
POLYLINE
  8
LAYER_1
 40
0.254
 41
0.254
 66
1
 10
0
 20
0
 30
0
 70
1
  0
VERTEX
  8
LAYER_1
 10
277.2537
 20
-15.6793
  0
VERTEX
  8
LAYER_1
 10
277.1161
 20
-15.2662
  0
VERTEX
  8
LAYER_1
 10
276.7023
 20
-15.1283
  0
VERTEX
  8
LAYER_1
 10
276.4267
 20
-15.2662
  0
VERTEX
  8
LAYER_1
 10
276.2891
 20
-15.6793
  0
VERTEX
  8
LAYER_1
 10
276.4267
 20
-15.9549
  0
VERTEX
  8
LAYER_1
 10
276.7023
 20
-16.0924
  0
VERTEX
  8
LAYER_1
 10
277.1161
 20
-15.9549
  0
SEQEND
  0
POLYLINE
  8
LAYER_1
 40
0.254
 41
0.254
 66
1
 10
0
 20
0
 30
0
 70
1
  0
VERTEX
  8
LAYER_1
 10
284.6911
 20
-15.6793
  0
VERTEX
  8
LAYER_1
 10
284.5531
 20
-15.2662
  0
VERTEX
  8
LAYER_1
 10
284.2773
 20
-15.1283
  0
VERTEX
  8
LAYER_1
 10
283.8641
 20
-15.2662
  0
VERTEX
  8
LAYER_1
 10
283.7262
 20
-15.6793
  0
VERTEX
  8
LAYER_1
 10
283.8641
 20
-15.9549
  0
VERTEX
  8
LAYER_1
 10
284.2773
 20
-16.0924
  0
VERTEX
  8
LAYER_1
 10
284.5531
 20
-15.9549
  0
SEQEND
  0
POLYLINE
  8
LAYER_1
 40
0.254
 41
0.254
 66
1
 10
0
 20
0
 30
0
 70
1
  0
VERTEX
  8
LAYER_1
 10
284.6911
 20
-20.0867
  0
VERTEX
  8
LAYER_1
 10
284.5531
 20
-19.8112
  0
VERTEX
  8
LAYER_1
 10
284.2773
 20
-19.6736
  0
VERTEX
  8
LAYER_1
 10
283.8641
 20
-19.8112
  0
VERTEX
  8
LAYER_1
 10
283.7262
 20
-20.0867
  0
VERTEX
  8
LAYER_1
 10
283.8641
 20
-20.4998
  0
VERTEX
  8
LAYER_1
 10
284.2773
 20
-20.6374
  0
VERTEX
  8
LAYER_1
 10
284.5531
 20
-20.4998
  0
SEQEND
  0
POLYLINE
  8
LAYER_1
 40
0.254
 41
0.254
 66
1
 10
0
 20
0
 30
0
 70
1
  0
VERTEX
  8
LAYER_1
 10
277.2537
 20
-20.0867
  0
VERTEX
  8
LAYER_1
 10
277.1161
 20
-19.8112
  0
VERTEX
  8
LAYER_1
 10
276.7023
 20
-19.6736
  0
VERTEX
  8
LAYER_1
 10
276.4267
 20
-19.8112
  0
VERTEX
  8
LAYER_1
 10
276.2891
 20
-20.0867
  0
VERTEX
  8
LAYER_1
 10
276.4267
 20
-20.4998
  0
VERTEX
  8
LAYER_1
 10
276.7023
 20
-20.6374
  0
VERTEX
  8
LAYER_1
 10
277.1161
 20
-20.4998
  0
SEQEND
  0
POLYLINE
  8
LAYER_1
 40
0.254
 41
0.254
 66
1
 10
0
 20
0
 30
0
 70
1
  0
VERTEX
  8
LAYER_1
 10
284.14
 20
-257.3374
  0
VERTEX
  8
LAYER_1
 10
283.8641
 20
-257.0622
  0
VERTEX
  8
LAYER_1
 10
283.5886
 20
-256.9243
  0
VERTEX
  8
LAYER_1
 10
283.1755
 20
-257.0622
  0
VERTEX
  8
LAYER_1
 10
283.0376
 20
-257.3374
  0
VERTEX
  8
LAYER_1
 10
283.1755
 20
-257.7508
  0
VERTEX
  8
LAYER_1
 10
283.5886
 20
-257.8884
  0
VERTEX
  8
LAYER_1
 10
283.8641
 20
-257.7508
  0
SEQEND
  0
POLYLINE
  8
LAYER_1
 40
0.254
 41
0.254
 66
1
 10
0
 20
0
 30
0
 70
1
  0
VERTEX
  8
LAYER_1
 10
285.2418
 20
-257.3374
  0
VERTEX
  8
LAYER_1
 10
284.9659
 20
-256.6487
  0
VERTEX
  8
LAYER_1
 10
284.4149
 20
-255.9601
  0
VERTEX
  8
LAYER_1
 10
283.5886
 20
-255.8225
  0
VERTEX
  8
LAYER_1
 10
282.7624
 20
-255.9601
  0
VERTEX
  8
LAYER_1
 10
282.2114
 20
-256.6487
  0
VERTEX
  8
LAYER_1
 10
281.9358
 20
-257.3374
  0
VERTEX
  8
LAYER_1
 10
282.2114
 20
-258.1639
  0
VERTEX
  8
LAYER_1
 10
282.7624
 20
-258.8526
  0
VERTEX
  8
LAYER_1
 10
283.5886
 20
-258.9902
  0
VERTEX
  8
LAYER_1
 10
284.4149
 20
-258.8526
  0
VERTEX
  8
LAYER_1
 10
284.9659
 20
-258.1639
  0
SEQEND
  0
POLYLINE
  8
LAYER_1
 40
0.254
 41
0.254
 66
1
 10
0
 20
0
 30
0
 70
1
  0
VERTEX
  8
LAYER_1
 10
283.3131
 20
-209.959
  0
VERTEX
  8
LAYER_1
 10
283.1755
 20
-209.5459
  0
VERTEX
  8
LAYER_1
 10
282.9007
 20
-209.4079
  0
VERTEX
  8
LAYER_1
 10
282.4869
 20
-209.5459
  0
VERTEX
  8
LAYER_1
 10
282.3496
 20
-209.959
  0
VERTEX
  8
LAYER_1
 10
282.4869
 20
-210.2345
  0
VERTEX
  8
LAYER_1
 10
282.9007
 20
-210.3721
  0
VERTEX
  8
LAYER_1
 10
283.1755
 20
-210.2345
  0
SEQEND
  0
POLYLINE
  8
LAYER_1
 40
0.254
 41
0.254
 66
1
 10
0
 20
0
 30
0
 70
1
  0
VERTEX
  8
LAYER_1
 10
284.5531
 20
-209.959
  0
VERTEX
  8
LAYER_1
 10
284.2773
 20
-209.1328
  0
VERTEX
  8
LAYER_1
 10
283.7262
 20
-208.5817
  0
VERTEX
  8
LAYER_1
 10
282.9007
 20
-208.3062
  0
VERTEX
  8
LAYER_1
 10
282.0734
 20
-208.5817
  0
VERTEX
  8
LAYER_1
 10
281.5227
 20
-209.1328
  0
VERTEX
  8
LAYER_1
 10
281.2479
 20
-209.959
  0
VERTEX
  8
LAYER_1
 10
281.5227
 20
-210.7852
  0
VERTEX
  8
LAYER_1
 10
282.0734
 20
-211.3363
  0
VERTEX
  8
LAYER_1
 10
282.9007
 20
-211.6118
  0
VERTEX
  8
LAYER_1
 10
283.7262
 20
-211.3363
  0
VERTEX
  8
LAYER_1
 10
284.2773
 20
-210.7852
  0
SEQEND
  0
POLYLINE
  8
LAYER_1
 40
0.254
 41
0.254
 66
1
 10
0
 20
0
 30
0
 70
1
  0
VERTEX
  8
LAYER_1
 10
191.8623
 20
-256.5111
  0
VERTEX
  8
LAYER_1
 10
191.724
 20
-256.098
  0
VERTEX
  8
LAYER_1
 10
191.3112
 20
-255.9601
  0
VERTEX
  8
LAYER_1
 10
191.0357
 20
-256.098
  0
VERTEX
  8
LAYER_1
 10
190.8974
 20
-256.5111
  0
VERTEX
  8
LAYER_1
 10
191.0357
 20
-256.7867
  0
VERTEX
  8
LAYER_1
 10
191.3112
 20
-256.9243
  0
VERTEX
  8
LAYER_1
 10
191.724
 20
-256.7867
  0
SEQEND
  0
POLYLINE
  8
LAYER_1
 40
0.254
 41
0.254
 66
1
 10
0
 20
0
 30
0
 70
1
  0
VERTEX
  8
LAYER_1
 10
192.9633
 20
-256.5111
  0
VERTEX
  8
LAYER_1
 10
192.6878
 20
-255.6849
  0
VERTEX
  8
LAYER_1
 10
192.1374
 20
-255.1339
  0
VERTEX
  8
LAYER_1
 10
191.3112
 20
-254.8583
  0
VERTEX
  8
LAYER_1
 10
190.6219
 20
-255.1339
  0
VERTEX
  8
LAYER_1
 10
189.9332
 20
-255.6849
  0
VERTEX
  8
LAYER_1
 10
189.7957
 20
-256.5111
  0
VERTEX
  8
LAYER_1
 10
189.9332
 20
-257.3374
  0
VERTEX
  8
LAYER_1
 10
190.6219
 20
-257.8884
  0
VERTEX
  8
LAYER_1
 10
191.3112
 20
-258.1639
  0
VERTEX
  8
LAYER_1
 10
192.1374
 20
-257.8884
  0
VERTEX
  8
LAYER_1
 10
192.6878
 20
-257.3374
  0
SEQEND
  0
POLYLINE
  8
LAYER_1
 40
0.254
 41
0.254
 66
1
 10
0
 20
0
 30
0
 70
1
  0
VERTEX
  8
LAYER_1
 10
191.4485
 20
-210.5093
  0
VERTEX
  8
LAYER_1
 10
191.3112
 20
-210.2345
  0
VERTEX
  8
LAYER_1
 10
190.8974
 20
-210.0966
  0
VERTEX
  8
LAYER_1
 10
190.6219
 20
-210.2345
  0
VERTEX
  8
LAYER_1
 10
190.4843
 20
-210.5093
  0
VERTEX
  8
LAYER_1
 10
190.6219
 20
-210.9231
  0
VERTEX
  8
LAYER_1
 10
190.8974
 20
-211.0607
  0
VERTEX
  8
LAYER_1
 10
191.3112
 20
-210.9231
  0
SEQEND
  0
POLYLINE
  8
LAYER_1
 40
0.254
 41
0.254
 66
1
 10
0
 20
0
 30
0
 70
1
  0
VERTEX
  8
LAYER_1
 10
192.5502
 20
-210.5093
  0
VERTEX
  8
LAYER_1
 10
192.4126
 20
-209.6835
  0
VERTEX
  8
LAYER_1
 10
191.724
 20
-209.1328
  0
VERTEX
  8
LAYER_1
 10
190.8974
 20
-208.9948
  0
VERTEX
  8
LAYER_1
 10
190.2088
 20
-209.1328
  0
VERTEX
  8
LAYER_1
 10
189.5201
 20
-209.6835
  0
VERTEX
  8
LAYER_1
 10
189.3825
 20
-210.5093
  0
VERTEX
  8
LAYER_1
 10
189.5201
 20
-211.3363
  0
VERTEX
  8
LAYER_1
 10
190.2088
 20
-211.8873
  0
VERTEX
  8
LAYER_1
 10
190.8974
 20
-212.1625
  0
VERTEX
  8
LAYER_1
 10
191.724
 20
-211.8873
  0
VERTEX
  8
LAYER_1
 10
192.4126
 20
-211.3363
  0
SEQEND
  0
POLYLINE
  8
LAYER_1
 40
0.254
 41
0.254
 66
1
 10
0
 20
0
 30
0
  0
VERTEX
  8
LAYER_1
 10
289.0977
 20
-71.3965
  0
VERTEX
  8
LAYER_1
 10
288.9602
 20
-70.8454
  0
VERTEX
  8
LAYER_1
 10
288.4091
 20
-70.5699
  0
SEQEND
  0
POLYLINE
  8
LAYER_1
 40
0.254
 41
0.254
 66
1
 10
0
 20
0
 30
0
  0
VERTEX
  8
LAYER_1
 10
288.4091
 20
-70.5699
  0
VERTEX
  8
LAYER_1
 10
186.3525
 20
-70.5699
  0
VERTEX
  8
LAYER_1
 10
185.8014
 20
-70.8454
  0
VERTEX
  8
LAYER_1
 10
185.5259
 20
-71.3965
  0
SEQEND
  0
POLYLINE
  8
LAYER_1
 40
0.254
 41
0.254
 66
1
 10
0
 20
0
 30
0
  0
VERTEX
  8
LAYER_1
 10
288.4091
 20
-125.2481
  0
VERTEX
  8
LAYER_1
 10
288.9602
 20
-125.1106
  0
VERTEX
  8
LAYER_1
 10
289.0977
 20
-124.5595
  0
SEQEND
  0
POLYLINE
  8
LAYER_1
 40
0.254
 41
0.254
 66
1
 10
0
 20
0
 30
0
  0
VERTEX
  8
LAYER_1
 10
185.5259
 20
-124.5595
  0
VERTEX
  8
LAYER_1
 10
185.8014
 20
-125.1106
  0
VERTEX
  8
LAYER_1
 10
186.3525
 20
-125.2481
  0
SEQEND
  0
POLYLINE
  8
LAYER_1
 40
0.254
 41
0.254
 66
1
 10
0
 20
0
 30
0
  0
VERTEX
  8
LAYER_1
 10
288.4091
 20
-125.2481
  0
VERTEX
  8
LAYER_1
 10
186.3525
 20
-125.2481
  0
SEQEND
  0
POLYLINE
  8
LAYER_1
 40
0.254
 41
0.254
 66
1
 10
0
 20
0
 30
0
  0
VERTEX
  8
LAYER_1
 10
289.0977
 20
-71.3965
  0
VERTEX
  8
LAYER_1
 10
289.0977
 20
-124.5595
  0
SEQEND
  0
POLYLINE
  8
LAYER_1
 40
0.254
 41
0.254
 66
1
 10
0
 20
0
 30
0
  0
VERTEX
  8
LAYER_1
 10
185.5259
 20
-124.5595
  0
VERTEX
  8
LAYER_1
 10
185.5259
 20
-71.3965
  0
SEQEND
  0
POLYLINE
  8
LAYER_1
 40
0.254
 41
0.254
 66
1
 10
0
 20
0
 30
0
 70
1
  0
VERTEX
  8
LAYER_1
 10
191.0357
 20
-170.2184
  0
VERTEX
  8
LAYER_1
 10
190.8974
 20
-170.0808
  0
VERTEX
  8
LAYER_1
 10
190.6219
 20
-169.9429
  0
VERTEX
  8
LAYER_1
 10
190.4843
 20
-170.0808
  0
VERTEX
  8
LAYER_1
 10
190.3464
 20
-170.2184
  0
VERTEX
  8
LAYER_1
 10
190.4843
 20
-170.4939
  0
VERTEX
  8
LAYER_1
 10
190.6219
 20
-170.6315
  0
VERTEX
  8
LAYER_1
 10
190.8974
 20
-170.4939
  0
SEQEND
  0
POLYLINE
  8
LAYER_1
 40
0.254
 41
0.254
 66
1
 10
0
 20
0
 30
0
 70
1
  0
VERTEX
  8
LAYER_1
 10
197.3707
 20
-154.7929
  0
VERTEX
  8
LAYER_1
 10
197.2331
 20
-154.6553
  0
VERTEX
  8
LAYER_1
 10
197.0951
 20
-154.5166
  0
VERTEX
  8
LAYER_1
 10
196.8196
 20
-154.6553
  0
VERTEX
  8
LAYER_1
 10
196.682
 20
-154.7929
  0
VERTEX
  8
LAYER_1
 10
196.8196
 20
-155.0684
  0
VERTEX
  8
LAYER_1
 10
197.0951
 20
-155.206
  0
VERTEX
  8
LAYER_1
 10
197.2331
 20
-155.0684
  0
SEQEND
  0
POLYLINE
  8
LAYER_1
 40
0.254
 41
0.254
 66
1
 10
0
 20
0
 30
0
 70
1
  0
VERTEX
  8
LAYER_1
 10
212.7969
 20
-148.4572
  0
VERTEX
  8
LAYER_1
 10
212.6586
 20
-148.182
  0
VERTEX
  8
LAYER_1
 10
212.5214
 20
-148.182
  0
VERTEX
  8
LAYER_1
 10
212.2459
 20
-148.182
  0
VERTEX
  8
LAYER_1
 10
212.2459
 20
-148.4572
  0
VERTEX
  8
LAYER_1
 10
212.2459
 20
-148.5951
  0
VERTEX
  8
LAYER_1
 10
212.5214
 20
-148.7324
  0
VERTEX
  8
LAYER_1
 10
212.6586
 20
-148.5951
  0
SEQEND
  0
POLYLINE
  8
LAYER_1
 40
0.254
 41
0.254
 66
1
 10
0
 20
0
 30
0
 70
1
  0
VERTEX
  8
LAYER_1
 10
228.2218
 20
-154.7929
  0
VERTEX
  8
LAYER_1
 10
228.2218
 20
-154.6553
  0
VERTEX
  8
LAYER_1
 10
227.9462
 20
-154.5166
  0
VERTEX
  8
LAYER_1
 10
227.6711
 20
-154.6553
  0
VERTEX
  8
LAYER_1
 10
227.6711
 20
-154.7929
  0
VERTEX
  8
LAYER_1
 10
227.6711
 20
-155.0684
  0
VERTEX
  8
LAYER_1
 10
227.9462
 20
-155.206
  0
VERTEX
  8
LAYER_1
 10
228.2218
 20
-155.0684
  0
SEQEND
  0
POLYLINE
  8
LAYER_1
 40
0.254
 41
0.254
 66
1
 10
0
 20
0
 30
0
 70
1
  0
VERTEX
  8
LAYER_1
 10
234.695
 20
-170.2184
  0
VERTEX
  8
LAYER_1
 10
234.5574
 20
-170.0808
  0
VERTEX
  8
LAYER_1
 10
234.2819
 20
-169.9429
  0
VERTEX
  8
LAYER_1
 10
234.144
 20
-170.0808
  0
VERTEX
  8
LAYER_1
 10
234.0064
 20
-170.2184
  0
VERTEX
  8
LAYER_1
 10
234.144
 20
-170.4939
  0
VERTEX
  8
LAYER_1
 10
234.2819
 20
-170.6315
  0
VERTEX
  8
LAYER_1
 10
234.5574
 20
-170.4939
  0
SEQEND
  0
POLYLINE
  8
LAYER_1
 40
0.254
 41
0.254
 66
1
 10
0
 20
0
 30
0
 70
1
  0
VERTEX
  8
LAYER_1
 10
228.2218
 20
-185.644
  0
VERTEX
  8
LAYER_1
 10
228.2218
 20
-185.5057
  0
VERTEX
  8
LAYER_1
 10
227.9462
 20
-185.3684
  0
VERTEX
  8
LAYER_1
 10
227.6711
 20
-185.5057
  0
VERTEX
  8
LAYER_1
 10
227.6711
 20
-185.644
  0
VERTEX
  8
LAYER_1
 10
227.6711
 20
-185.9195
  0
VERTEX
  8
LAYER_1
 10
227.9462
 20
-186.0571
  0
VERTEX
  8
LAYER_1
 10
228.2218
 20
-185.9195
  0
SEQEND
  0
POLYLINE
  8
LAYER_1
 40
0.254
 41
0.254
 66
1
 10
0
 20
0
 30
0
 70
1
  0
VERTEX
  8
LAYER_1
 10
212.7969
 20
-192.1172
  0
VERTEX
  8
LAYER_1
 10
212.6586
 20
-191.8417
  0
VERTEX
  8
LAYER_1
 10
212.5214
 20
-191.8417
  0
VERTEX
  8
LAYER_1
 10
212.2459
 20
-191.8417
  0
VERTEX
  8
LAYER_1
 10
212.2459
 20
-192.1172
  0
VERTEX
  8
LAYER_1
 10
212.2459
 20
-192.3921
  0
VERTEX
  8
LAYER_1
 10
212.5214
 20
-192.3921
  0
VERTEX
  8
LAYER_1
 10
212.6586
 20
-192.3921
  0
SEQEND
  0
POLYLINE
  8
LAYER_1
 40
0.254
 41
0.254
 66
1
 10
0
 20
0
 30
0
 70
1
  0
VERTEX
  8
LAYER_1
 10
197.3707
 20
-185.644
  0
VERTEX
  8
LAYER_1
 10
197.2331
 20
-185.5057
  0
VERTEX
  8
LAYER_1
 10
197.0951
 20
-185.3684
  0
VERTEX
  8
LAYER_1
 10
196.8196
 20
-185.5057
  0
VERTEX
  8
LAYER_1
 10
196.682
 20
-185.644
  0
VERTEX
  8
LAYER_1
 10
196.8196
 20
-185.9195
  0
VERTEX
  8
LAYER_1
 10
197.0951
 20
-186.0571
  0
VERTEX
  8
LAYER_1
 10
197.2331
 20
-185.9195
  0
SEQEND
  0
POLYLINE
  8
LAYER_1
 40
0.254
 41
0.254
 66
1
 10
0
 20
0
 30
0
 70
1
  0
VERTEX
  8
LAYER_1
 10
247.0905
 20
-154.7929
  0
VERTEX
  8
LAYER_1
 10
246.9529
 20
-154.6553
  0
VERTEX
  8
LAYER_1
 10
246.8157
 20
-154.5166
  0
VERTEX
  8
LAYER_1
 10
246.5398
 20
-154.6553
  0
VERTEX
  8
LAYER_1
 10
246.4019
 20
-154.7929
  0
VERTEX
  8
LAYER_1
 10
246.5398
 20
-155.0684
  0
VERTEX
  8
LAYER_1
 10
246.8157
 20
-155.206
  0
VERTEX
  8
LAYER_1
 10
246.9529
 20
-155.0684
  0
SEQEND
  0
POLYLINE
  8
LAYER_1
 40
0.254
 41
0.254
 66
1
 10
0
 20
0
 30
0
 70
1
  0
VERTEX
  8
LAYER_1
 10
262.516
 20
-148.4572
  0
VERTEX
  8
LAYER_1
 10
262.3785
 20
-148.182
  0
VERTEX
  8
LAYER_1
 10
262.2412
 20
-148.182
  0
VERTEX
  8
LAYER_1
 10
261.9653
 20
-148.182
  0
VERTEX
  8
LAYER_1
 10
261.8274
 20
-148.4572
  0
VERTEX
  8
LAYER_1
 10
261.9653
 20
-148.5951
  0
VERTEX
  8
LAYER_1
 10
262.2412
 20
-148.7324
  0
VERTEX
  8
LAYER_1
 10
262.3785
 20
-148.5951
  0
SEQEND
  0
POLYLINE
  8
LAYER_1
 40
0.254
 41
0.254
 66
1
 10
0
 20
0
 30
0
 70
1
  0
VERTEX
  8
LAYER_1
 10
277.9416
 20
-154.7929
  0
VERTEX
  8
LAYER_1
 10
277.8047
 20
-154.6553
  0
VERTEX
  8
LAYER_1
 10
277.6668
 20
-154.5166
  0
VERTEX
  8
LAYER_1
 10
277.3909
 20
-154.6553
  0
VERTEX
  8
LAYER_1
 10
277.3909
 20
-154.7929
  0
VERTEX
  8
LAYER_1
 10
277.3909
 20
-155.0684
  0
VERTEX
  8
LAYER_1
 10
277.6668
 20
-155.206
  0
VERTEX
  8
LAYER_1
 10
277.8047
 20
-155.0684
  0
SEQEND
  0
POLYLINE
  8
LAYER_1
 40
0.254
 41
0.254
 66
1
 10
0
 20
0
 30
0
 70
1
  0
VERTEX
  8
LAYER_1
 10
284.4149
 20
-170.2184
  0
VERTEX
  8
LAYER_1
 10
284.2773
 20
-170.0808
  0
VERTEX
  8
LAYER_1
 10
284.0025
 20
-169.9429
  0
VERTEX
  8
LAYER_1
 10
283.8641
 20
-170.0808
  0
VERTEX
  8
LAYER_1
 10
283.7262
 20
-170.2184
  0
VERTEX
  8
LAYER_1
 10
283.8641
 20
-170.4939
  0
VERTEX
  8
LAYER_1
 10
284.0025
 20
-170.6315
  0
VERTEX
  8
LAYER_1
 10
284.2773
 20
-170.4939
  0
SEQEND
  0
POLYLINE
  8
LAYER_1
 40
0.254
 41
0.254
 66
1
 10
0
 20
0
 30
0
 70
1
  0
VERTEX
  8
LAYER_1
 10
277.9416
 20
-185.644
  0
VERTEX
  8
LAYER_1
 10
277.8047
 20
-185.5057
  0
VERTEX
  8
LAYER_1
 10
277.6668
 20
-185.3684
  0
VERTEX
  8
LAYER_1
 10
277.3909
 20
-185.5057
  0
VERTEX
  8
LAYER_1
 10
277.3909
 20
-185.644
  0
VERTEX
  8
LAYER_1
 10
277.3909
 20
-185.9195
  0
VERTEX
  8
LAYER_1
 10
277.6668
 20
-186.0571
  0
VERTEX
  8
LAYER_1
 10
277.8047
 20
-185.9195
  0
SEQEND
  0
POLYLINE
  8
LAYER_1
 40
0.254
 41
0.254
 66
1
 10
0
 20
0
 30
0
 70
1
  0
VERTEX
  8
LAYER_1
 10
262.516
 20
-192.1172
  0
VERTEX
  8
LAYER_1
 10
262.3785
 20
-191.8417
  0
VERTEX
  8
LAYER_1
 10
262.2412
 20
-191.8417
  0
VERTEX
  8
LAYER_1
 10
261.9653
 20
-191.8417
  0
VERTEX
  8
LAYER_1
 10
261.8274
 20
-192.1172
  0
VERTEX
  8
LAYER_1
 10
261.9653
 20
-192.3921
  0
VERTEX
  8
LAYER_1
 10
262.2412
 20
-192.3921
  0
VERTEX
  8
LAYER_1
 10
262.3785
 20
-192.3921
  0
SEQEND
  0
POLYLINE
  8
LAYER_1
 40
0.254
 41
0.254
 66
1
 10
0
 20
0
 30
0
 70
1
  0
VERTEX
  8
LAYER_1
 10
247.0905
 20
-185.644
  0
VERTEX
  8
LAYER_1
 10
246.9529
 20
-185.5057
  0
VERTEX
  8
LAYER_1
 10
246.8157
 20
-185.3684
  0
VERTEX
  8
LAYER_1
 10
246.5398
 20
-185.5057
  0
VERTEX
  8
LAYER_1
 10
246.4019
 20
-185.644
  0
VERTEX
  8
LAYER_1
 10
246.5398
 20
-185.9195
  0
VERTEX
  8
LAYER_1
 10
246.8157
 20
-186.0571
  0
VERTEX
  8
LAYER_1
 10
246.9529
 20
-185.9195
  0
SEQEND
  0
POLYLINE
  8
LAYER_1
 40
0.254
 41
0.254
 66
1
 10
0
 20
0
 30
0
  0
VERTEX
  8
LAYER_1
 10
113.3566
 20
-162.3679
  0
VERTEX
  8
LAYER_1
 10
112.53
 20
-162.6434
  0
VERTEX
  8
LAYER_1
 10
111.9793
 20
-163.1941
  0
VERTEX
  8
LAYER_1
 10
111.842
 20
-164.0207
  0
SEQEND
  0
POLYLINE
  8
LAYER_1
 40
0.254
 41
0.254
 66
1
 10
0
 20
0
 30
0
  0
VERTEX
  8
LAYER_1
 10
113.4941
 20
-164.7093
  0
VERTEX
  8
LAYER_1
 10
113.081
 20
-164.8466
  0
VERTEX
  8
LAYER_1
 10
112.9438
 20
-165.1224
  0
SEQEND
  0
POLYLINE
  8
LAYER_1
 40
0.254
 41
0.254
 66
1
 10
0
 20
0
 30
0
  0
VERTEX
  8
LAYER_1
 10
113.4941
 20
-164.7093
  0
VERTEX
  8
LAYER_1
 10
113.9073
 20
-164.5714
  0
VERTEX
  8
LAYER_1
 10
114.0452
 20
-164.1583
  0
SEQEND
  0
POLYLINE
  8
LAYER_1
 40
0.254
 41
0.254
 66
1
 10
0
 20
0
 30
0
  0
VERTEX
  8
LAYER_1
 10
112.1176
 20
-169.5298
  0
VERTEX
  8
LAYER_1
 10
112.9438
 20
-165.1224
  0
SEQEND
  0
POLYLINE
  8
LAYER_1
 40
0.254
 41
0.254
 66
1
 10
0
 20
0
 30
0
 70
1
  0
VERTEX
  8
LAYER_1
 10
113.7697
 20
-164.1583
  0
VERTEX
  8
LAYER_1
 10
113.7697
 20
-164.0207
  0
VERTEX
  8
LAYER_1
 10
113.4941
 20
-163.8827
  0
VERTEX
  8
LAYER_1
 10
113.3566
 20
-164.0207
  0
VERTEX
  8
LAYER_1
 10
113.2186
 20
-164.1583
  0
VERTEX
  8
LAYER_1
 10
113.3566
 20
-164.2962
  0
VERTEX
  8
LAYER_1
 10
113.4941
 20
-164.4338
  0
VERTEX
  8
LAYER_1
 10
113.7697
 20
-164.2962
  0
SEQEND
  0
POLYLINE
  8
LAYER_1
 40
0.254
 41
0.254
 66
1
 10
0
 20
0
 30
0
  0
VERTEX
  8
LAYER_1
 10
113.3566
 20
-162.3679
  0
VERTEX
  8
LAYER_1
 10
112.53
 20
-162.6434
  0
VERTEX
  8
LAYER_1
 10
111.9793
 20
-163.1941
  0
VERTEX
  8
LAYER_1
 10
111.842
 20
-164.0207
  0
SEQEND
  0
POLYLINE
  8
LAYER_1
 40
0.254
 41
0.254
 66
1
 10
0
 20
0
 30
0
  0
VERTEX
  8
LAYER_1
 10
113.4941
 20
-162.5051
  0
VERTEX
  8
LAYER_1
 10
112.6683
 20
-162.781
  0
VERTEX
  8
LAYER_1
 10
112.1176
 20
-163.332
  0
VERTEX
  8
LAYER_1
 10
111.9793
 20
-164.1583
  0
SEQEND
  0
POLYLINE
  8
LAYER_1
 40
0.254
 41
0.254
 66
1
 10
0
 20
0
 30
0
  0
VERTEX
  8
LAYER_1
 10
113.4941
 20
-162.6434
  0
VERTEX
  8
LAYER_1
 10
112.8055
 20
-162.781
  0
VERTEX
  8
LAYER_1
 10
112.1176
 20
-163.332
  0
VERTEX
  8
LAYER_1
 10
111.9793
 20
-164.1583
  0
SEQEND
  0
POLYLINE
  8
LAYER_1
 40
0.254
 41
0.254
 66
1
 10
0
 20
0
 30
0
  0
VERTEX
  8
LAYER_1
 10
114.4583
 20
-163.6076
  0
VERTEX
  8
LAYER_1
 10
114.1828
 20
-163.7452
  0
VERTEX
  8
LAYER_1
 10
114.0452
 20
-164.1583
  0
SEQEND
  0
POLYLINE
  8
LAYER_1
 40
0.254
 41
0.254
 66
1
 10
0
 20
0
 30
0
  0
VERTEX
  8
LAYER_1
 10
120.3805
 20
-162.781
  0
VERTEX
  8
LAYER_1
 10
124.6503
 20
-163.6076
  0
SEQEND
  0
POLYLINE
  8
LAYER_1
 40
0.254
 41
0.254
 66
1
 10
0
 20
0
 30
0
  0
VERTEX
  8
LAYER_1
 10
122.5844
 20
-167.1883
  0
VERTEX
  8
LAYER_1
 10
116.6618
 20
-167.1883
  0
SEQEND
  0
POLYLINE
  8
LAYER_1
 40
0.254
 41
0.254
 66
1
 10
0
 20
0
 30
0
  0
VERTEX
  8
LAYER_1
 10
112.1176
 20
-170.9071
  0
VERTEX
  8
LAYER_1
 10
112.1176
 20
-169.5298
  0
SEQEND
  0
POLYLINE
  8
LAYER_1
 40
0.254
 41
0.254
 66
1
 10
0
 20
0
 30
0
  0
VERTEX
  8
LAYER_1
 10
126.3027
 20
-165.1224
  0
VERTEX
  8
LAYER_1
 10
126.0276
 20
-164.8466
  0
VERTEX
  8
LAYER_1
 10
125.752
 20
-164.7093
  0
SEQEND
  0
POLYLINE
  8
LAYER_1
 40
0.254
 41
0.254
 66
1
 10
0
 20
0
 30
0
  0
VERTEX
  8
LAYER_1
 10
125.0634
 20
-164.1583
  0
VERTEX
  8
LAYER_1
 10
125.201
 20
-164.5714
  0
VERTEX
  8
LAYER_1
 10
125.752
 20
-164.7093
  0
SEQEND
  0
POLYLINE
  8
LAYER_1
 40
0.254
 41
0.254
 66
1
 10
0
 20
0
 30
0
  0
VERTEX
  8
LAYER_1
 10
126.3027
 20
-165.1224
  0
VERTEX
  8
LAYER_1
 10
126.9914
 20
-169.5298
  0
SEQEND
  0
POLYLINE
  8
LAYER_1
 40
0.254
 41
0.254
 66
1
 10
0
 20
0
 30
0
 70
1
  0
VERTEX
  8
LAYER_1
 10
125.8903
 20
-164.1583
  0
VERTEX
  8
LAYER_1
 10
125.8903
 20
-164.0207
  0
VERTEX
  8
LAYER_1
 10
125.6148
 20
-163.8827
  0
VERTEX
  8
LAYER_1
 10
125.4765
 20
-164.0207
  0
VERTEX
  8
LAYER_1
 10
125.3389
 20
-164.1583
  0
VERTEX
  8
LAYER_1
 10
125.4765
 20
-164.2962
  0
VERTEX
  8
LAYER_1
 10
125.6148
 20
-164.4338
  0
VERTEX
  8
LAYER_1
 10
125.8903
 20
-164.2962
  0
SEQEND
  0
POLYLINE
  8
LAYER_1
 40
0.254
 41
0.254
 66
1
 10
0
 20
0
 30
0
  0
VERTEX
  8
LAYER_1
 10
125.0634
 20
-164.1583
  0
VERTEX
  8
LAYER_1
 10
125.0634
 20
-163.7452
  0
VERTEX
  8
LAYER_1
 10
124.6503
 20
-163.6076
  0
SEQEND
  0
POLYLINE
  8
LAYER_1
 40
0.254
 41
0.254
 66
1
 10
0
 20
0
 30
0
  0
VERTEX
  8
LAYER_1
 10
118.8657
 20
-162.781
  0
VERTEX
  8
LAYER_1
 10
120.3805
 20
-162.781
  0
SEQEND
  0
POLYLINE
  8
LAYER_1
 40
0.254
 41
0.254
 66
1
 10
0
 20
0
 30
0
  0
VERTEX
  8
LAYER_1
 10
127.4048
 20
-164.0207
  0
VERTEX
  8
LAYER_1
 10
127.1293
 20
-163.1941
  0
VERTEX
  8
LAYER_1
 10
126.5782
 20
-162.6434
  0
VERTEX
  8
LAYER_1
 10
125.752
 20
-162.3679
  0
SEQEND
  0
POLYLINE
  8
LAYER_1
 40
0.254
 41
0.254
 66
1
 10
0
 20
0
 30
0
  0
VERTEX
  8
LAYER_1
 10
127.4048
 20
-164.0207
  0
VERTEX
  8
LAYER_1
 10
127.1293
 20
-163.1941
  0
VERTEX
  8
LAYER_1
 10
126.5782
 20
-162.6434
  0
VERTEX
  8
LAYER_1
 10
125.752
 20
-162.3679
  0
SEQEND
  0
POLYLINE
  8
LAYER_1
 40
0.254
 41
0.254
 66
1
 10
0
 20
0
 30
0
  0
VERTEX
  8
LAYER_1
 10
127.2669
 20
-164.1583
  0
VERTEX
  8
LAYER_1
 10
126.9914
 20
-163.332
  0
VERTEX
  8
LAYER_1
 10
126.441
 20
-162.781
  0
VERTEX
  8
LAYER_1
 10
125.6148
 20
-162.5051
  0
SEQEND
  0
POLYLINE
  8
LAYER_1
 40
0.254
 41
0.254
 66
1
 10
0
 20
0
 30
0
  0
VERTEX
  8
LAYER_1
 10
127.2669
 20
-164.1583
  0
VERTEX
  8
LAYER_1
 10
126.9914
 20
-163.332
  0
VERTEX
  8
LAYER_1
 10
126.441
 20
-162.781
  0
VERTEX
  8
LAYER_1
 10
125.6148
 20
-162.6434
  0
SEQEND
  0
POLYLINE
  8
LAYER_1
 40
0.254
 41
0.254
 66
1
 10
0
 20
0
 30
0
  0
VERTEX
  8
LAYER_1
 10
116.6618
 20
-173.2485
  0
VERTEX
  8
LAYER_1
 10
122.5844
 20
-173.2485
  0
SEQEND
  0
POLYLINE
  8
LAYER_1
 40
0.254
 41
0.254
 66
1
 10
0
 20
0
 30
0
  0
VERTEX
  8
LAYER_1
 10
124.6503
 20
-176.9672
  0
VERTEX
  8
LAYER_1
 10
120.3805
 20
-177.6558
  0
SEQEND
  0
POLYLINE
  8
LAYER_1
 40
0.254
 41
0.254
 66
1
 10
0
 20
0
 30
0
  0
VERTEX
  8
LAYER_1
 10
125.752
 20
-175.7275
  0
VERTEX
  8
LAYER_1
 10
126.0276
 20
-175.5899
  0
VERTEX
  8
LAYER_1
 10
126.3027
 20
-175.3144
  0
VERTEX
  8
LAYER_1
 10
126.9914
 20
-170.9071
  0
SEQEND
  0
POLYLINE
  8
LAYER_1
 40
0.254
 41
0.254
 66
1
 10
0
 20
0
 30
0
 70
1
  0
VERTEX
  8
LAYER_1
 10
125.8903
 20
-176.2779
  0
VERTEX
  8
LAYER_1
 10
125.8903
 20
-176.1406
  0
VERTEX
  8
LAYER_1
 10
125.6148
 20
-176.003
  0
VERTEX
  8
LAYER_1
 10
125.4765
 20
-176.1406
  0
VERTEX
  8
LAYER_1
 10
125.3389
 20
-176.2779
  0
VERTEX
  8
LAYER_1
 10
125.4765
 20
-176.5541
  0
VERTEX
  8
LAYER_1
 10
125.6148
 20
-176.5541
  0
VERTEX
  8
LAYER_1
 10
125.8903
 20
-176.5541
  0
SEQEND
  0
POLYLINE
  8
LAYER_1
 40
0.254
 41
0.254
 66
1
 10
0
 20
0
 30
0
  0
VERTEX
  8
LAYER_1
 10
125.752
 20
-175.7275
  0
VERTEX
  8
LAYER_1
 10
125.201
 20
-175.8651
  0
VERTEX
  8
LAYER_1
 10
125.0634
 20
-176.4162
  0
SEQEND
  0
POLYLINE
  8
LAYER_1
 40
0.254
 41
0.254
 66
1
 10
0
 20
0
 30
0
  0
VERTEX
  8
LAYER_1
 10
124.6503
 20
-176.9672
  0
VERTEX
  8
LAYER_1
 10
125.0634
 20
-176.6917
  0
VERTEX
  8
LAYER_1
 10
125.0634
 20
-176.4162
  0
SEQEND
  0
POLYLINE
  8
LAYER_1
 40
0.254
 41
0.254
 66
1
 10
0
 20
0
 30
0
  0
VERTEX
  8
LAYER_1
 10
120.3805
 20
-177.6558
  0
VERTEX
  8
LAYER_1
 10
118.8657
 20
-177.6558
  0
SEQEND
  0
POLYLINE
  8
LAYER_1
 40
0.254
 41
0.254
 66
1
 10
0
 20
0
 30
0
  0
VERTEX
  8
LAYER_1
 10
125.752
 20
-178.069
  0
VERTEX
  8
LAYER_1
 10
126.5782
 20
-177.7934
  0
VERTEX
  8
LAYER_1
 10
127.1293
 20
-177.2424
  0
VERTEX
  8
LAYER_1
 10
127.4048
 20
-176.4162
  0
SEQEND
  0
POLYLINE
  8
LAYER_1
 40
0.254
 41
0.254
 66
1
 10
0
 20
0
 30
0
  0
VERTEX
  8
LAYER_1
 10
125.752
 20
-178.069
  0
VERTEX
  8
LAYER_1
 10
126.5782
 20
-177.7934
  0
VERTEX
  8
LAYER_1
 10
127.1293
 20
-177.2424
  0
VERTEX
  8
LAYER_1
 10
127.4048
 20
-176.4162
  0
SEQEND
  0
POLYLINE
  8
LAYER_1
 40
0.254
 41
0.254
 66
1
 10
0
 20
0
 30
0
  0
VERTEX
  8
LAYER_1
 10
125.6148
 20
-177.9314
  0
VERTEX
  8
LAYER_1
 10
126.441
 20
-177.6558
  0
VERTEX
  8
LAYER_1
 10
126.9914
 20
-177.1048
  0
VERTEX
  8
LAYER_1
 10
127.2669
 20
-176.2779
  0
SEQEND
  0
POLYLINE
  8
LAYER_1
 40
0.254
 41
0.254
 66
1
 10
0
 20
0
 30
0
  0
VERTEX
  8
LAYER_1
 10
125.6148
 20
-177.9314
  0
VERTEX
  8
LAYER_1
 10
126.441
 20
-177.6558
  0
VERTEX
  8
LAYER_1
 10
126.9914
 20
-177.1048
  0
VERTEX
  8
LAYER_1
 10
127.2669
 20
-176.2779
  0
SEQEND
  0
POLYLINE
  8
LAYER_1
 40
0.254
 41
0.254
 66
1
 10
0
 20
0
 30
0
  0
VERTEX
  8
LAYER_1
 10
127.4048
 20
-176.4162
  0
VERTEX
  8
LAYER_1
 10
127.4048
 20
-164.0207
  0
SEQEND
  0
POLYLINE
  8
LAYER_1
 40
0.254
 41
0.254
 66
1
 10
0
 20
0
 30
0
 70
1
  0
VERTEX
  8
LAYER_1
 10
127.2669
 20
-176.2779
  0
VERTEX
  8
LAYER_1
 10
127.2669
 20
-164.1583
  0
SEQEND
  0
POLYLINE
  8
LAYER_1
 40
0.254
 41
0.254
 66
1
 10
0
 20
0
 30
0
  0
VERTEX
  8
LAYER_1
 10
126.9914
 20
-169.5298
  0
VERTEX
  8
LAYER_1
 10
126.9914
 20
-170.9071
  0
SEQEND
  0
POLYLINE
  8
LAYER_1
 40
0.254
 41
0.254
 66
1
 10
0
 20
0
 30
0
  0
VERTEX
  8
LAYER_1
 10
127.4048
 20
-176.4162
  0
VERTEX
  8
LAYER_1
 10
127.4048
 20
-164.0207
  0
SEQEND
  0
POLYLINE
  8
LAYER_1
 40
0.254
 41
0.254
 66
1
 10
0
 20
0
 30
0
  0
VERTEX
  8
LAYER_1
 10
124.6503
 20
-175.3144
  0
VERTEX
  8
LAYER_1
 10
125.752
 20
-173.7992
  0
VERTEX
  8
LAYER_1
 10
126.5782
 20
-172.1467
  0
VERTEX
  8
LAYER_1
 10
126.7165
 20
-170.2184
  0
VERTEX
  8
LAYER_1
 10
126.5782
 20
-168.428
  0
VERTEX
  8
LAYER_1
 10
125.752
 20
-166.6376
  0
VERTEX
  8
LAYER_1
 10
124.6503
 20
-165.1224
  0
SEQEND
  0
POLYLINE
  8
LAYER_1
 40
0.254
 41
0.254
 66
1
 10
0
 20
0
 30
0
  0
VERTEX
  8
LAYER_1
 10
125.6148
 20
-162.6434
  0
VERTEX
  8
LAYER_1
 10
113.4941
 20
-162.6434
  0
SEQEND
  0
POLYLINE
  8
LAYER_1
 40
0.254
 41
0.254
 66
1
 10
0
 20
0
 30
0
  0
VERTEX
  8
LAYER_1
 10
113.4941
 20
-162.5051
  0
VERTEX
  8
LAYER_1
 10
125.6148
 20
-162.5051
  0
SEQEND
  0
POLYLINE
  8
LAYER_1
 40
0.254
 41
0.254
 66
1
 10
0
 20
0
 30
0
  0
VERTEX
  8
LAYER_1
 10
125.752
 20
-162.3679
  0
VERTEX
  8
LAYER_1
 10
113.3566
 20
-162.3679
  0
SEQEND
  0
POLYLINE
  8
LAYER_1
 40
0.254
 41
0.254
 66
1
 10
0
 20
0
 30
0
  0
VERTEX
  8
LAYER_1
 10
113.3566
 20
-178.069
  0
VERTEX
  8
LAYER_1
 10
125.752
 20
-178.069
  0
SEQEND
  0
POLYLINE
  8
LAYER_1
 40
0.254
 41
0.254
 66
1
 10
0
 20
0
 30
0
  0
VERTEX
  8
LAYER_1
 10
113.3566
 20
-162.3679
  0
VERTEX
  8
LAYER_1
 10
125.752
 20
-162.3679
  0
SEQEND
  0
POLYLINE
  8
LAYER_1
 40
0.254
 41
0.254
 66
1
 10
0
 20
0
 30
0
  0
VERTEX
  8
LAYER_1
 10
116.6618
 20
-167.1883
  0
VERTEX
  8
LAYER_1
 10
116.6618
 20
-173.2485
  0
SEQEND
  0
POLYLINE
  8
LAYER_1
 40
0.254
 41
0.254
 66
1
 10
0
 20
0
 30
0
  0
VERTEX
  8
LAYER_1
 10
122.5844
 20
-173.2485
  0
VERTEX
  8
LAYER_1
 10
122.5844
 20
-167.1883
  0
SEQEND
  0
POLYLINE
  8
LAYER_1
 40
0.254
 41
0.254
 66
1
 10
0
 20
0
 30
0
  0
VERTEX
  8
LAYER_1
 10
124.6503
 20
-165.1224
  0
VERTEX
  8
LAYER_1
 10
123.1351
 20
-164.0207
  0
VERTEX
  8
LAYER_1
 10
121.4823
 20
-163.332
  0
VERTEX
  8
LAYER_1
 10
119.5546
 20
-163.0565
  0
VERTEX
  8
LAYER_1
 10
117.7636
 20
-163.332
  0
VERTEX
  8
LAYER_1
 10
115.9732
 20
-164.0207
  0
VERTEX
  8
LAYER_1
 10
114.5959
 20
-165.1224
  0
SEQEND
  0
POLYLINE
  8
LAYER_1
 40
0.254
 41
0.254
 66
1
 10
0
 20
0
 30
0
  0
VERTEX
  8
LAYER_1
 10
125.752
 20
-178.069
  0
VERTEX
  8
LAYER_1
 10
113.3566
 20
-178.069
  0
SEQEND
  0
POLYLINE
  8
LAYER_1
 40
0.254
 41
0.254
 66
1
 10
0
 20
0
 30
0
 70
1
  0
VERTEX
  8
LAYER_1
 10
113.4941
 20
-177.9314
  0
VERTEX
  8
LAYER_1
 10
125.6148
 20
-177.9314
  0
SEQEND
  0
POLYLINE
  8
LAYER_1
 40
0.254
 41
0.254
 66
1
 10
0
 20
0
 30
0
  0
VERTEX
  8
LAYER_1
 10
114.4583
 20
-163.6076
  0
VERTEX
  8
LAYER_1
 10
118.8657
 20
-162.781
  0
SEQEND
  0
POLYLINE
  8
LAYER_1
 40
0.254
 41
0.254
 66
1
 10
0
 20
0
 30
0
  0
VERTEX
  8
LAYER_1
 10
111.842
 20
-176.4162
  0
VERTEX
  8
LAYER_1
 10
111.9793
 20
-177.2424
  0
VERTEX
  8
LAYER_1
 10
112.53
 20
-177.7934
  0
VERTEX
  8
LAYER_1
 10
113.3566
 20
-178.069
  0
SEQEND
  0
POLYLINE
  8
LAYER_1
 40
0.254
 41
0.254
 66
1
 10
0
 20
0
 30
0
  0
VERTEX
  8
LAYER_1
 10
111.842
 20
-176.4162
  0
VERTEX
  8
LAYER_1
 10
111.9793
 20
-177.2424
  0
VERTEX
  8
LAYER_1
 10
112.53
 20
-177.7934
  0
VERTEX
  8
LAYER_1
 10
113.3566
 20
-178.069
  0
SEQEND
  0
POLYLINE
  8
LAYER_1
 40
0.254
 41
0.254
 66
1
 10
0
 20
0
 30
0
 70
1
  0
VERTEX
  8
LAYER_1
 10
113.7697
 20
-176.2779
  0
VERTEX
  8
LAYER_1
 10
113.7697
 20
-176.1406
  0
VERTEX
  8
LAYER_1
 10
113.4941
 20
-176.003
  0
VERTEX
  8
LAYER_1
 10
113.3566
 20
-176.1406
  0
VERTEX
  8
LAYER_1
 10
113.2186
 20
-176.2779
  0
VERTEX
  8
LAYER_1
 10
113.3566
 20
-176.5541
  0
VERTEX
  8
LAYER_1
 10
113.4941
 20
-176.5541
  0
VERTEX
  8
LAYER_1
 10
113.7697
 20
-176.5541
  0
SEQEND
  0
POLYLINE
  8
LAYER_1
 40
0.254
 41
0.254
 66
1
 10
0
 20
0
 30
0
  0
VERTEX
  8
LAYER_1
 10
112.9438
 20
-175.3144
  0
VERTEX
  8
LAYER_1
 10
112.1176
 20
-170.9071
  0
SEQEND
  0
POLYLINE
  8
LAYER_1
 40
0.254
 41
0.254
 66
1
 10
0
 20
0
 30
0
  0
VERTEX
  8
LAYER_1
 10
112.9438
 20
-175.3144
  0
VERTEX
  8
LAYER_1
 10
113.081
 20
-175.5899
  0
VERTEX
  8
LAYER_1
 10
113.4941
 20
-175.7275
  0
SEQEND
  0
POLYLINE
  8
LAYER_1
 40
0.254
 41
0.254
 66
1
 10
0
 20
0
 30
0
  0
VERTEX
  8
LAYER_1
 10
114.0452
 20
-176.4162
  0
VERTEX
  8
LAYER_1
 10
114.1828
 20
-176.6917
  0
VERTEX
  8
LAYER_1
 10
114.4583
 20
-176.9672
  0
SEQEND
  0
POLYLINE
  8
LAYER_1
 40
0.254
 41
0.254
 66
1
 10
0
 20
0
 30
0
  0
VERTEX
  8
LAYER_1
 10
114.0452
 20
-176.4162
  0
VERTEX
  8
LAYER_1
 10
113.9073
 20
-175.8651
  0
VERTEX
  8
LAYER_1
 10
113.4941
 20
-175.7275
  0
SEQEND
  0
POLYLINE
  8
LAYER_1
 40
0.254
 41
0.254
 66
1
 10
0
 20
0
 30
0
  0
VERTEX
  8
LAYER_1
 10
111.9793
 20
-176.2779
  0
VERTEX
  8
LAYER_1
 10
112.1176
 20
-177.1048
  0
VERTEX
  8
LAYER_1
 10
112.8055
 20
-177.6558
  0
VERTEX
  8
LAYER_1
 10
113.4941
 20
-177.9314
  0
SEQEND
  0
POLYLINE
  8
LAYER_1
 40
0.254
 41
0.254
 66
1
 10
0
 20
0
 30
0
  0
VERTEX
  8
LAYER_1
 10
111.9793
 20
-176.2779
  0
VERTEX
  8
LAYER_1
 10
112.1176
 20
-177.1048
  0
VERTEX
  8
LAYER_1
 10
112.6683
 20
-177.6558
  0
VERTEX
  8
LAYER_1
 10
113.4941
 20
-177.9314
  0
SEQEND
  0
POLYLINE
  8
LAYER_1
 40
0.254
 41
0.254
 66
1
 10
0
 20
0
 30
0
 70
1
  0
VERTEX
  8
LAYER_1
 10
111.842
 20
-176.4162
  0
VERTEX
  8
LAYER_1
 10
111.842
 20
-164.0207
  0
SEQEND
  0
POLYLINE
  8
LAYER_1
 40
0.254
 41
0.254
 66
1
 10
0
 20
0
 30
0
 70
1
  0
VERTEX
  8
LAYER_1
 10
111.9793
 20
-164.1583
  0
VERTEX
  8
LAYER_1
 10
111.9793
 20
-176.2779
  0
SEQEND
  0
POLYLINE
  8
LAYER_1
 40
0.254
 41
0.254
 66
1
 10
0
 20
0
 30
0
  0
VERTEX
  8
LAYER_1
 10
114.5959
 20
-165.1224
  0
VERTEX
  8
LAYER_1
 10
113.3566
 20
-166.6376
  0
VERTEX
  8
LAYER_1
 10
112.6683
 20
-168.428
  0
VERTEX
  8
LAYER_1
 10
112.3927
 20
-170.2184
  0
VERTEX
  8
LAYER_1
 10
112.6683
 20
-172.1467
  0
VERTEX
  8
LAYER_1
 10
113.3566
 20
-173.7992
  0
VERTEX
  8
LAYER_1
 10
114.5959
 20
-175.3144
  0
SEQEND
  0
POLYLINE
  8
LAYER_1
 40
0.254
 41
0.254
 66
1
 10
0
 20
0
 30
0
 70
1
  0
VERTEX
  8
LAYER_1
 10
126.8538
 20
-170.2184
  0
VERTEX
  8
LAYER_1
 10
126.7165
 20
-168.2897
  0
VERTEX
  8
LAYER_1
 10
125.8903
 20
-166.6376
  0
VERTEX
  8
LAYER_1
 10
124.7879
 20
-165.1224
  0
VERTEX
  8
LAYER_1
 10
123.2734
 20
-163.8827
  0
VERTEX
  8
LAYER_1
 10
121.4823
 20
-163.1941
  0
VERTEX
  8
LAYER_1
 10
119.5546
 20
-162.9189
  0
VERTEX
  8
LAYER_1
 10
117.7636
 20
-163.1941
  0
VERTEX
  8
LAYER_1
 10
115.9732
 20
-163.8827
  0
VERTEX
  8
LAYER_1
 10
114.4583
 20
-165.1224
  0
VERTEX
  8
LAYER_1
 10
113.2186
 20
-166.6376
  0
VERTEX
  8
LAYER_1
 10
112.53
 20
-168.2897
  0
VERTEX
  8
LAYER_1
 10
112.2545
 20
-170.2184
  0
VERTEX
  8
LAYER_1
 10
112.53
 20
-172.1467
  0
VERTEX
  8
LAYER_1
 10
113.2186
 20
-173.9371
  0
VERTEX
  8
LAYER_1
 10
114.4583
 20
-175.452
  0
VERTEX
  8
LAYER_1
 10
115.9732
 20
-176.5541
  0
VERTEX
  8
LAYER_1
 10
117.7636
 20
-177.2424
  0
VERTEX
  8
LAYER_1
 10
119.5546
 20
-177.5179
  0
VERTEX
  8
LAYER_1
 10
121.4823
 20
-177.2424
  0
VERTEX
  8
LAYER_1
 10
123.2734
 20
-176.5541
  0
VERTEX
  8
LAYER_1
 10
124.7879
 20
-175.452
  0
VERTEX
  8
LAYER_1
 10
125.8903
 20
-173.9371
  0
VERTEX
  8
LAYER_1
 10
126.7165
 20
-172.1467
  0
SEQEND
  0
POLYLINE
  8
LAYER_1
 40
0.254
 41
0.254
 66
1
 10
0
 20
0
 30
0
  0
VERTEX
  8
LAYER_1
 10
114.5959
 20
-175.3144
  0
VERTEX
  8
LAYER_1
 10
115.9732
 20
-176.4162
  0
VERTEX
  8
LAYER_1
 10
117.7636
 20
-177.1048
  0
VERTEX
  8
LAYER_1
 10
119.5546
 20
-177.3803
  0
VERTEX
  8
LAYER_1
 10
121.4823
 20
-177.1048
  0
VERTEX
  8
LAYER_1
 10
123.1351
 20
-176.4162
  0
VERTEX
  8
LAYER_1
 10
124.6503
 20
-175.3144
  0
SEQEND
  0
POLYLINE
  8
LAYER_1
 40
0.254
 41
0.254
 66
1
 10
0
 20
0
 30
0
 70
1
  0
VERTEX
  8
LAYER_1
 10
126.8538
 20
-170.2184
  0
VERTEX
  8
LAYER_1
 10
126.7165
 20
-168.2897
  0
VERTEX
  8
LAYER_1
 10
125.8903
 20
-166.6376
  0
VERTEX
  8
LAYER_1
 10
124.7879
 20
-165.1224
  0
VERTEX
  8
LAYER_1
 10
123.2734
 20
-163.8827
  0
VERTEX
  8
LAYER_1
 10
121.4823
 20
-163.1941
  0
VERTEX
  8
LAYER_1
 10
119.5546
 20
-162.9189
  0
VERTEX
  8
LAYER_1
 10
117.7636
 20
-163.1941
  0
VERTEX
  8
LAYER_1
 10
115.9732
 20
-163.8827
  0
VERTEX
  8
LAYER_1
 10
114.4583
 20
-165.1224
  0
VERTEX
  8
LAYER_1
 10
113.2186
 20
-166.6376
  0
VERTEX
  8
LAYER_1
 10
112.53
 20
-168.2897
  0
VERTEX
  8
LAYER_1
 10
112.2545
 20
-170.2184
  0
VERTEX
  8
LAYER_1
 10
112.53
 20
-172.1467
  0
VERTEX
  8
LAYER_1
 10
113.2186
 20
-173.9371
  0
VERTEX
  8
LAYER_1
 10
114.4583
 20
-175.452
  0
VERTEX
  8
LAYER_1
 10
115.9732
 20
-176.5541
  0
VERTEX
  8
LAYER_1
 10
117.7636
 20
-177.2424
  0
VERTEX
  8
LAYER_1
 10
119.5546
 20
-177.5179
  0
VERTEX
  8
LAYER_1
 10
121.4823
 20
-177.2424
  0
VERTEX
  8
LAYER_1
 10
123.2734
 20
-176.5541
  0
VERTEX
  8
LAYER_1
 10
124.7879
 20
-175.452
  0
VERTEX
  8
LAYER_1
 10
125.8903
 20
-173.9371
  0
VERTEX
  8
LAYER_1
 10
126.7165
 20
-172.1467
  0
SEQEND
  0
ENDBLK
  0
BLOCK
  8
LAYER_1
  2
AIGNBL01010008
 70
64
 10
0
 20
0
 30
0
  3
AIGNBL01010008
  0
POLYLINE
  8
LAYER_1
 40
0.254
 41
0.254
 66
1
 10
0
 20
0
 30
0
 70
1
  0
VERTEX
  8
LAYER_1
 10
321.1296
 20
-170.2182
  0
VERTEX
  8
LAYER_1
 10
320.8541
 20
-168.2896
  0
VERTEX
  8
LAYER_1
 10
320.0275
 20
-166.6375
  0
VERTEX
  8
LAYER_1
 10
318.9258
 20
-165.1226
  0
VERTEX
  8
LAYER_1
 10
317.4109
 20
-163.8829
  0
VERTEX
  8
LAYER_1
 10
315.6202
 20
-163.1943
  0
VERTEX
  8
LAYER_1
 10
313.6922
 20
-162.9188
  0
VERTEX
  8
LAYER_1
 10
311.9022
 20
-163.1943
  0
VERTEX
  8
LAYER_1
 10
310.1118
 20
-163.8829
  0
VERTEX
  8
LAYER_1
 10
308.5962
 20
-165.1226
  0
VERTEX
  8
LAYER_1
 10
307.4945
 20
-166.6375
  0
VERTEX
  8
LAYER_1
 10
306.6686
 20
-168.2896
  0
VERTEX
  8
LAYER_1
 10
306.3927
 20
-170.2182
  0
VERTEX
  8
LAYER_1
 10
306.6686
 20
-172.1466
  0
VERTEX
  8
LAYER_1
 10
307.4945
 20
-173.937
  0
VERTEX
  8
LAYER_1
 10
308.5962
 20
-175.4522
  0
VERTEX
  8
LAYER_1
 10
310.1118
 20
-176.5539
  0
VERTEX
  8
LAYER_1
 10
311.9022
 20
-177.2426
  0
VERTEX
  8
LAYER_1
 10
313.6922
 20
-177.5181
  0
VERTEX
  8
LAYER_1
 10
315.6202
 20
-177.2426
  0
VERTEX
  8
LAYER_1
 10
317.4109
 20
-176.5539
  0
VERTEX
  8
LAYER_1
 10
318.9258
 20
-175.4522
  0
VERTEX
  8
LAYER_1
 10
320.0275
 20
-173.937
  0
VERTEX
  8
LAYER_1
 10
320.8541
 20
-172.1466
  0
SEQEND
  0
POLYLINE
  8
LAYER_1
 40
0.254
 41
0.254
 66
1
 10
0
 20
0
 30
0
  0
VERTEX
  8
LAYER_1
 10
307.4945
 20
-178.0688
  0
VERTEX
  8
LAYER_1
 10
320.0275
 20
-178.0688
  0
SEQEND
  0
POLYLINE
  8
LAYER_1
 40
0.254
 41
0.254
 66
1
 10
0
 20
0
 30
0
 70
1
  0
VERTEX
  8
LAYER_1
 10
321.1296
 20
-170.2182
  0
VERTEX
  8
LAYER_1
 10
320.8541
 20
-168.2896
  0
VERTEX
  8
LAYER_1
 10
320.0275
 20
-166.6375
  0
VERTEX
  8
LAYER_1
 10
318.9258
 20
-165.1226
  0
VERTEX
  8
LAYER_1
 10
317.4109
 20
-163.8829
  0
VERTEX
  8
LAYER_1
 10
315.6202
 20
-163.1943
  0
VERTEX
  8
LAYER_1
 10
313.6922
 20
-162.9188
  0
VERTEX
  8
LAYER_1
 10
311.9022
 20
-163.1943
  0
VERTEX
  8
LAYER_1
 10
310.1118
 20
-163.8829
  0
VERTEX
  8
LAYER_1
 10
308.5962
 20
-165.1226
  0
VERTEX
  8
LAYER_1
 10
307.4945
 20
-166.6375
  0
VERTEX
  8
LAYER_1
 10
306.6686
 20
-168.2896
  0
VERTEX
  8
LAYER_1
 10
306.3927
 20
-170.2182
  0
VERTEX
  8
LAYER_1
 10
306.6686
 20
-172.1466
  0
VERTEX
  8
LAYER_1
 10
307.4945
 20
-173.937
  0
VERTEX
  8
LAYER_1
 10
308.5962
 20
-175.4522
  0
VERTEX
  8
LAYER_1
 10
310.1118
 20
-176.5539
  0
VERTEX
  8
LAYER_1
 10
311.9022
 20
-177.2426
  0
VERTEX
  8
LAYER_1
 10
313.6922
 20
-177.5181
  0
VERTEX
  8
LAYER_1
 10
315.6202
 20
-177.2426
  0
VERTEX
  8
LAYER_1
 10
317.4109
 20
-176.5539
  0
VERTEX
  8
LAYER_1
 10
318.9258
 20
-175.4522
  0
VERTEX
  8
LAYER_1
 10
320.0275
 20
-173.937
  0
VERTEX
  8
LAYER_1
 10
320.8541
 20
-172.1466
  0
SEQEND
  0
POLYLINE
  8
LAYER_1
 40
0.254
 41
0.254
 66
1
 10
0
 20
0
 30
0
  0
VERTEX
  8
LAYER_1
 10
308.7338
 20
-163.6074
  0
VERTEX
  8
LAYER_1
 10
313.0039
 20
-162.7812
  0
SEQEND
  0
POLYLINE
  8
LAYER_1
 40
0.254
 41
0.254
 66
1
 10
0
 20
0
 30
0
  0
VERTEX
  8
LAYER_1
 10
313.0039
 20
-177.6557
  0
VERTEX
  8
LAYER_1
 10
308.7338
 20
-176.967
  0
SEQEND
  0
POLYLINE
  8
LAYER_1
 40
0.254
 41
0.254
 66
1
 10
0
 20
0
 30
0
  0
VERTEX
  8
LAYER_1
 10
307.4945
 20
-162.3681
  0
VERTEX
  8
LAYER_1
 10
306.8058
 20
-162.6432
  0
VERTEX
  8
LAYER_1
 10
306.1175
 20
-163.1943
  0
VERTEX
  8
LAYER_1
 10
305.9793
 20
-164.0205
  0
SEQEND
  0
POLYLINE
  8
LAYER_1
 40
0.254
 41
0.254
 66
1
 10
0
 20
0
 30
0
  0
VERTEX
  8
LAYER_1
 10
307.4945
 20
-162.3681
  0
VERTEX
  8
LAYER_1
 10
306.8058
 20
-162.6432
  0
VERTEX
  8
LAYER_1
 10
306.1175
 20
-163.1943
  0
VERTEX
  8
LAYER_1
 10
305.9793
 20
-164.0205
  0
SEQEND
  0
POLYLINE
  8
LAYER_1
 40
0.254
 41
0.254
 66
1
 10
0
 20
0
 30
0
  0
VERTEX
  8
LAYER_1
 10
307.632
 20
-162.505
  0
VERTEX
  8
LAYER_1
 10
306.9434
 20
-162.7812
  0
VERTEX
  8
LAYER_1
 10
306.2548
 20
-163.3319
  0
VERTEX
  8
LAYER_1
 10
306.1175
 20
-164.1585
  0
SEQEND
  0
POLYLINE
  8
LAYER_1
 40
0.254
 41
0.254
 66
1
 10
0
 20
0
 30
0
  0
VERTEX
  8
LAYER_1
 10
307.632
 20
-162.6432
  0
VERTEX
  8
LAYER_1
 10
306.9434
 20
-162.7812
  0
VERTEX
  8
LAYER_1
 10
306.3927
 20
-163.3319
  0
VERTEX
  8
LAYER_1
 10
306.1175
 20
-164.1585
  0
SEQEND
  0
POLYLINE
  8
LAYER_1
 40
0.254
 41
0.254
 66
1
 10
0
 20
0
 30
0
  0
VERTEX
  8
LAYER_1
 10
307.4945
 20
-162.3681
  0
VERTEX
  8
LAYER_1
 10
306.8058
 20
-162.6432
  0
VERTEX
  8
LAYER_1
 10
306.1175
 20
-163.1943
  0
VERTEX
  8
LAYER_1
 10
305.9793
 20
-164.0205
  0
SEQEND
  0
POLYLINE
  8
LAYER_1
 40
0.254
 41
0.254
 66
1
 10
0
 20
0
 30
0
  0
VERTEX
  8
LAYER_1
 10
321.5431
 20
-164.0205
  0
VERTEX
  8
LAYER_1
 10
321.4048
 20
-163.1943
  0
VERTEX
  8
LAYER_1
 10
320.7162
 20
-162.6432
  0
VERTEX
  8
LAYER_1
 10
320.0275
 20
-162.3681
  0
SEQEND
  0
POLYLINE
  8
LAYER_1
 40
0.254
 41
0.254
 66
1
 10
0
 20
0
 30
0
  0
VERTEX
  8
LAYER_1
 10
321.5431
 20
-164.0205
  0
VERTEX
  8
LAYER_1
 10
321.4048
 20
-163.1943
  0
VERTEX
  8
LAYER_1
 10
320.7162
 20
-162.6432
  0
VERTEX
  8
LAYER_1
 10
320.0275
 20
-162.3681
  0
SEQEND
  0
POLYLINE
  8
LAYER_1
 40
0.254
 41
0.254
 66
1
 10
0
 20
0
 30
0
  0
VERTEX
  8
LAYER_1
 10
321.4048
 20
-164.1585
  0
VERTEX
  8
LAYER_1
 10
321.2672
 20
-163.3319
  0
VERTEX
  8
LAYER_1
 10
320.5786
 20
-162.7812
  0
VERTEX
  8
LAYER_1
 10
319.8906
 20
-162.505
  0
SEQEND
  0
POLYLINE
  8
LAYER_1
 40
0.254
 41
0.254
 66
1
 10
0
 20
0
 30
0
  0
VERTEX
  8
LAYER_1
 10
321.4048
 20
-164.1585
  0
VERTEX
  8
LAYER_1
 10
321.1296
 20
-163.3319
  0
VERTEX
  8
LAYER_1
 10
320.5786
 20
-162.7812
  0
VERTEX
  8
LAYER_1
 10
319.8906
 20
-162.6432
  0
SEQEND
  0
POLYLINE
  8
LAYER_1
 40
0.254
 41
0.254
 66
1
 10
0
 20
0
 30
0
  0
VERTEX
  8
LAYER_1
 10
321.5431
 20
-164.0205
  0
VERTEX
  8
LAYER_1
 10
321.4048
 20
-163.1943
  0
VERTEX
  8
LAYER_1
 10
320.7162
 20
-162.6432
  0
VERTEX
  8
LAYER_1
 10
320.0275
 20
-162.3681
  0
SEQEND
  0
POLYLINE
  8
LAYER_1
 40
0.254
 41
0.254
 66
1
 10
0
 20
0
 30
0
  0
VERTEX
  8
LAYER_1
 10
363.2744
 20
-197.213
  0
VERTEX
  8
LAYER_1
 10
299.3684
 20
-197.213
  0
VERTEX
  8
LAYER_1
 10
299.3684
 20
-143.3614
  0
SEQEND
  0
POLYLINE
  8
LAYER_1
 40
0.254
 41
0.254
 66
1
 10
0
 20
0
 30
0
  0
VERTEX
  8
LAYER_1
 10
299.3684
 20
-143.3614
  0
VERTEX
  8
LAYER_1
 10
363.2744
 20
-143.3614
  0
SEQEND
  0
ENDBLK
  0
BLOCK
  8
LAYER_1
  2
AIGNBL01010009
 70
64
 10
0
 20
0
 30
0
  3
AIGNBL01010009
  0
POLYLINE
  8
LAYER_1
 40
0.254
 41
0.254
 66
1
 10
0
 20
0
 30
0
  0
VERTEX
  8
LAYER_1
 10
363.2743
 20
-197.2132
  0
VERTEX
  8
LAYER_1
 10
369.0589
 20
-197.2132
  0
SEQEND
  0
POLYLINE
  8
LAYER_1
 40
0.254
 41
0.254
 66
1
 10
0
 20
0
 30
0
  0
VERTEX
  8
LAYER_1
 10
363.2743
 20
-143.3616
  0
VERTEX
  8
LAYER_1
 10
369.0589
 20
-143.3616
  0
SEQEND
  0
POLYLINE
  8
LAYER_1
 40
0.254
 41
0.254
 66
1
 10
0
 20
0
 30
0
  0
VERTEX
  8
LAYER_1
 10
368.9213
 20
-195.4228
  0
VERTEX
  8
LAYER_1
 10
368.9213
 20
-145.1519
  0
SEQEND
  0
POLYLINE
  8
LAYER_1
 40
0.254
 41
0.254
 66
1
 10
0
 20
0
 30
0
 70
1
  0
VERTEX
  8
LAYER_1
 10
307.4943
 20
-162.3679
  0
VERTEX
  8
LAYER_1
 10
320.0277
 20
-162.3679
  0
VERTEX
  8
LAYER_1
 10
307.4943
 20
-162.3679
  0
VERTEX
  8
LAYER_1
 10
320.0277
 20
-162.3679
  0
SEQEND
  0
POLYLINE
  8
LAYER_1
 40
0.254
 41
0.254
 66
1
 10
0
 20
0
 30
0
  0
VERTEX
  8
LAYER_1
 10
319.8905
 20
-162.6434
  0
VERTEX
  8
LAYER_1
 10
307.6322
 20
-162.6434
  0
SEQEND
  0
POLYLINE
  8
LAYER_1
 40
0.254
 41
0.254
 66
1
 10
0
 20
0
 30
0
  0
VERTEX
  8
LAYER_1
 10
307.6322
 20
-162.5051
  0
VERTEX
  8
LAYER_1
 10
319.8905
 20
-162.5051
  0
SEQEND
  0
POLYLINE
  8
LAYER_1
 40
0.254
 41
0.254
 66
1
 10
0
 20
0
 30
0
  0
VERTEX
  8
LAYER_1
 10
319.2018
 20
-164.1583
  0
VERTEX
  8
LAYER_1
 10
319.4767
 20
-164.5714
  0
VERTEX
  8
LAYER_1
 10
319.8905
 20
-164.7093
  0
SEQEND
  0
POLYLINE
  8
LAYER_1
 40
0.254
 41
0.254
 66
1
 10
0
 20
0
 30
0
  0
VERTEX
  8
LAYER_1
 10
319.2018
 20
-164.1583
  0
VERTEX
  8
LAYER_1
 10
319.2018
 20
-163.7452
  0
VERTEX
  8
LAYER_1
 10
318.7887
 20
-163.6076
  0
SEQEND
  0
POLYLINE
  8
LAYER_1
 40
0.254
 41
0.254
 66
1
 10
0
 20
0
 30
0
  0
VERTEX
  8
LAYER_1
 10
320.4415
 20
-165.1224
  0
VERTEX
  8
LAYER_1
 10
320.3032
 20
-164.8466
  0
VERTEX
  8
LAYER_1
 10
319.8905
 20
-164.7093
  0
SEQEND
  0
POLYLINE
  8
LAYER_1
 40
0.254
 41
0.254
 66
1
 10
0
 20
0
 30
0
 70
1
  0
VERTEX
  8
LAYER_1
 10
320.1653
 20
-164.1583
  0
VERTEX
  8
LAYER_1
 10
320.0277
 20
-164.0207
  0
VERTEX
  8
LAYER_1
 10
319.8905
 20
-163.8827
  0
VERTEX
  8
LAYER_1
 10
319.6146
 20
-164.0207
  0
VERTEX
  8
LAYER_1
 10
319.6146
 20
-164.1583
  0
VERTEX
  8
LAYER_1
 10
319.6146
 20
-164.2962
  0
VERTEX
  8
LAYER_1
 10
319.8905
 20
-164.4338
  0
VERTEX
  8
LAYER_1
 10
320.0277
 20
-164.2962
  0
SEQEND
  0
POLYLINE
  8
LAYER_1
 40
0.254
 41
0.254
 66
1
 10
0
 20
0
 30
0
  0
VERTEX
  8
LAYER_1
 10
320.4415
 20
-165.1224
  0
VERTEX
  8
LAYER_1
 10
321.267
 20
-169.5298
  0
VERTEX
  8
LAYER_1
 10
321.267
 20
-170.9071
  0
SEQEND
  0
POLYLINE
  8
LAYER_1
 40
0.254
 41
0.254
 66
1
 10
0
 20
0
 30
0
  0
VERTEX
  8
LAYER_1
 10
314.5186
 20
-162.781
  0
VERTEX
  8
LAYER_1
 10
318.7887
 20
-163.6076
  0
SEQEND
  0
POLYLINE
  8
LAYER_1
 40
0.254
 41
0.254
 66
1
 10
0
 20
0
 30
0
  0
VERTEX
  8
LAYER_1
 10
316.7221
 20
-173.2485
  0
VERTEX
  8
LAYER_1
 10
316.7221
 20
-167.1883
  0
SEQEND
  0
POLYLINE
  8
LAYER_1
 40
0.254
 41
0.254
 66
1
 10
0
 20
0
 30
0
  0
VERTEX
  8
LAYER_1
 10
313.0041
 20
-162.781
  0
VERTEX
  8
LAYER_1
 10
314.5186
 20
-162.781
  0
SEQEND
  0
POLYLINE
  8
LAYER_1
 40
0.254
 41
0.254
 66
1
 10
0
 20
0
 30
0
  0
VERTEX
  8
LAYER_1
 10
319.8905
 20
-175.7275
  0
VERTEX
  8
LAYER_1
 10
319.4767
 20
-175.8651
  0
VERTEX
  8
LAYER_1
 10
319.2018
 20
-176.4162
  0
SEQEND
  0
POLYLINE
  8
LAYER_1
 40
0.254
 41
0.254
 66
1
 10
0
 20
0
 30
0
  0
VERTEX
  8
LAYER_1
 10
318.7887
 20
-176.9672
  0
VERTEX
  8
LAYER_1
 10
319.2018
 20
-176.6917
  0
VERTEX
  8
LAYER_1
 10
319.2018
 20
-176.4162
  0
SEQEND
  0
POLYLINE
  8
LAYER_1
 40
0.254
 41
0.254
 66
1
 10
0
 20
0
 30
0
  0
VERTEX
  8
LAYER_1
 10
319.8905
 20
-175.7275
  0
VERTEX
  8
LAYER_1
 10
320.3032
 20
-175.5899
  0
VERTEX
  8
LAYER_1
 10
320.4415
 20
-175.3144
  0
SEQEND
  0
POLYLINE
  8
LAYER_1
 40
0.254
 41
0.254
 66
1
 10
0
 20
0
 30
0
 70
1
  0
VERTEX
  8
LAYER_1
 10
320.1653
 20
-176.2779
  0
VERTEX
  8
LAYER_1
 10
320.0277
 20
-176.1406
  0
VERTEX
  8
LAYER_1
 10
319.8905
 20
-176.003
  0
VERTEX
  8
LAYER_1
 10
319.6146
 20
-176.1406
  0
VERTEX
  8
LAYER_1
 10
319.6146
 20
-176.2779
  0
VERTEX
  8
LAYER_1
 10
319.6146
 20
-176.5541
  0
VERTEX
  8
LAYER_1
 10
319.8905
 20
-176.5541
  0
VERTEX
  8
LAYER_1
 10
320.0277
 20
-176.5541
  0
SEQEND
  0
POLYLINE
  8
LAYER_1
 40
0.254
 41
0.254
 66
1
 10
0
 20
0
 30
0
  0
VERTEX
  8
LAYER_1
 10
320.0277
 20
-178.069
  0
VERTEX
  8
LAYER_1
 10
320.7164
 20
-177.7934
  0
VERTEX
  8
LAYER_1
 10
321.405
 20
-177.2424
  0
VERTEX
  8
LAYER_1
 10
321.5433
 20
-176.4162
  0
SEQEND
  0
POLYLINE
  8
LAYER_1
 40
0.254
 41
0.254
 66
1
 10
0
 20
0
 30
0
  0
VERTEX
  8
LAYER_1
 10
320.0277
 20
-178.069
  0
VERTEX
  8
LAYER_1
 10
320.7164
 20
-177.7934
  0
VERTEX
  8
LAYER_1
 10
321.405
 20
-177.2424
  0
VERTEX
  8
LAYER_1
 10
321.5433
 20
-176.4162
  0
SEQEND
  0
POLYLINE
  8
LAYER_1
 40
0.254
 41
0.254
 66
1
 10
0
 20
0
 30
0
  0
VERTEX
  8
LAYER_1
 10
319.8905
 20
-177.9314
  0
VERTEX
  8
LAYER_1
 10
320.5784
 20
-177.6558
  0
VERTEX
  8
LAYER_1
 10
321.267
 20
-177.1048
  0
VERTEX
  8
LAYER_1
 10
321.405
 20
-176.2779
  0
SEQEND
  0
POLYLINE
  8
LAYER_1
 40
0.254
 41
0.254
 66
1
 10
0
 20
0
 30
0
  0
VERTEX
  8
LAYER_1
 10
319.8905
 20
-177.9314
  0
VERTEX
  8
LAYER_1
 10
320.5784
 20
-177.6558
  0
VERTEX
  8
LAYER_1
 10
321.1295
 20
-177.1048
  0
VERTEX
  8
LAYER_1
 10
321.405
 20
-176.2779
  0
SEQEND
  0
POLYLINE
  8
LAYER_1
 40
0.254
 41
0.254
 66
1
 10
0
 20
0
 30
0
  0
VERTEX
  8
LAYER_1
 10
320.0277
 20
-178.069
  0
VERTEX
  8
LAYER_1
 10
320.7164
 20
-177.7934
  0
VERTEX
  8
LAYER_1
 10
321.405
 20
-177.2424
  0
VERTEX
  8
LAYER_1
 10
321.5433
 20
-176.4162
  0
SEQEND
  0
POLYLINE
  8
LAYER_1
 40
0.254
 41
0.254
 66
1
 10
0
 20
0
 30
0
  0
VERTEX
  8
LAYER_1
 10
318.7887
 20
-176.9672
  0
VERTEX
  8
LAYER_1
 10
314.5186
 20
-177.6558
  0
VERTEX
  8
LAYER_1
 10
313.0041
 20
-177.6558
  0
SEQEND
  0
POLYLINE
  8
LAYER_1
 40
0.254
 41
0.254
 66
1
 10
0
 20
0
 30
0
  0
VERTEX
  8
LAYER_1
 10
321.5433
 20
-176.4162
  0
VERTEX
  8
LAYER_1
 10
321.5433
 20
-164.0207
  0
SEQEND
  0
POLYLINE
  8
LAYER_1
 40
0.254
 41
0.254
 66
1
 10
0
 20
0
 30
0
  0
VERTEX
  8
LAYER_1
 10
321.267
 20
-170.9071
  0
VERTEX
  8
LAYER_1
 10
320.4415
 20
-175.3144
  0
SEQEND
  0
POLYLINE
  8
LAYER_1
 40
0.254
 41
0.254
 66
1
 10
0
 20
0
 30
0
 70
1
  0
VERTEX
  8
LAYER_1
 10
321.405
 20
-176.2779
  0
VERTEX
  8
LAYER_1
 10
321.405
 20
-164.1583
  0
SEQEND
  0
POLYLINE
  8
LAYER_1
 40
0.254
 41
0.254
 66
1
 10
0
 20
0
 30
0
  0
VERTEX
  8
LAYER_1
 10
321.5433
 20
-176.4162
  0
VERTEX
  8
LAYER_1
 10
321.5433
 20
-164.0207
  0
SEQEND
  0
POLYLINE
  8
LAYER_1
 40
0.254
 41
0.254
 66
1
 10
0
 20
0
 30
0
  0
VERTEX
  8
LAYER_1
 10
318.7887
 20
-175.3144
  0
VERTEX
  8
LAYER_1
 10
320.0277
 20
-173.7992
  0
VERTEX
  8
LAYER_1
 10
320.7164
 20
-172.1467
  0
VERTEX
  8
LAYER_1
 10
320.9922
 20
-170.2184
  0
VERTEX
  8
LAYER_1
 10
320.7164
 20
-168.428
  0
VERTEX
  8
LAYER_1
 10
320.0277
 20
-166.6376
  0
VERTEX
  8
LAYER_1
 10
318.7887
 20
-165.1224
  0
SEQEND
  0
POLYLINE
  8
LAYER_1
 40
0.254
 41
0.254
 66
1
 10
0
 20
0
 30
0
  0
VERTEX
  8
LAYER_1
 10
321.5433
 20
-176.4162
  0
VERTEX
  8
LAYER_1
 10
321.5433
 20
-164.0207
  0
SEQEND
  0
POLYLINE
  8
LAYER_1
 40
0.254
 41
0.254
 66
1
 10
0
 20
0
 30
0
  0
VERTEX
  8
LAYER_1
 10
307.6322
 20
-164.7093
  0
VERTEX
  8
LAYER_1
 10
308.0454
 20
-164.5714
  0
VERTEX
  8
LAYER_1
 10
308.3212
 20
-164.1583
  0
SEQEND
  0
POLYLINE
  8
LAYER_1
 40
0.254
 41
0.254
 66
1
 10
0
 20
0
 30
0
  0
VERTEX
  8
LAYER_1
 10
307.6322
 20
-164.7093
  0
VERTEX
  8
LAYER_1
 10
307.2195
 20
-164.8466
  0
VERTEX
  8
LAYER_1
 10
307.0812
 20
-165.1224
  0
SEQEND
  0
POLYLINE
  8
LAYER_1
 40
0.254
 41
0.254
 66
1
 10
0
 20
0
 30
0
 70
1
  0
VERTEX
  8
LAYER_1
 10
307.9081
 20
-164.1583
  0
VERTEX
  8
LAYER_1
 10
307.9081
 20
-164.0207
  0
VERTEX
  8
LAYER_1
 10
307.6322
 20
-163.8827
  0
VERTEX
  8
LAYER_1
 10
307.4943
 20
-164.0207
  0
VERTEX
  8
LAYER_1
 10
307.3567
 20
-164.1583
  0
VERTEX
  8
LAYER_1
 10
307.4943
 20
-164.2962
  0
VERTEX
  8
LAYER_1
 10
307.6322
 20
-164.4338
  0
VERTEX
  8
LAYER_1
 10
307.9081
 20
-164.2962
  0
SEQEND
  0
POLYLINE
  8
LAYER_1
 40
0.254
 41
0.254
 66
1
 10
0
 20
0
 30
0
  0
VERTEX
  8
LAYER_1
 10
308.734
 20
-163.6076
  0
VERTEX
  8
LAYER_1
 10
308.3212
 20
-163.7452
  0
VERTEX
  8
LAYER_1
 10
308.3212
 20
-164.1583
  0
SEQEND
  0
POLYLINE
  8
LAYER_1
 40
0.254
 41
0.254
 66
1
 10
0
 20
0
 30
0
  0
VERTEX
  8
LAYER_1
 10
310.7999
 20
-167.1883
  0
VERTEX
  8
LAYER_1
 10
310.7999
 20
-173.2485
  0
SEQEND
  0
POLYLINE
  8
LAYER_1
 40
0.254
 41
0.254
 66
1
 10
0
 20
0
 30
0
  0
VERTEX
  8
LAYER_1
 10
307.0812
 20
-165.1224
  0
VERTEX
  8
LAYER_1
 10
306.255
 20
-169.5298
  0
VERTEX
  8
LAYER_1
 10
306.255
 20
-170.9071
  0
SEQEND
  0
POLYLINE
  8
LAYER_1
 40
0.254
 41
0.254
 66
1
 10
0
 20
0
 30
0
  0
VERTEX
  8
LAYER_1
 10
308.3212
 20
-176.4162
  0
VERTEX
  8
LAYER_1
 10
308.0454
 20
-175.8651
  0
VERTEX
  8
LAYER_1
 10
307.6322
 20
-175.7275
  0
SEQEND
  0
POLYLINE
  8
LAYER_1
 40
0.254
 41
0.254
 66
1
 10
0
 20
0
 30
0
 70
1
  0
VERTEX
  8
LAYER_1
 10
307.9081
 20
-176.2779
  0
VERTEX
  8
LAYER_1
 10
307.9081
 20
-176.1406
  0
VERTEX
  8
LAYER_1
 10
307.6322
 20
-176.003
  0
VERTEX
  8
LAYER_1
 10
307.4943
 20
-176.1406
  0
VERTEX
  8
LAYER_1
 10
307.3567
 20
-176.2779
  0
VERTEX
  8
LAYER_1
 10
307.4943
 20
-176.5541
  0
VERTEX
  8
LAYER_1
 10
307.6322
 20
-176.5541
  0
VERTEX
  8
LAYER_1
 10
307.9081
 20
-176.5541
  0
SEQEND
  0
POLYLINE
  8
LAYER_1
 40
0.254
 41
0.254
 66
1
 10
0
 20
0
 30
0
  0
VERTEX
  8
LAYER_1
 10
307.0812
 20
-175.3144
  0
VERTEX
  8
LAYER_1
 10
307.2195
 20
-175.5899
  0
VERTEX
  8
LAYER_1
 10
307.6322
 20
-175.7275
  0
SEQEND
  0
POLYLINE
  8
LAYER_1
 40
0.254
 41
0.254
 66
1
 10
0
 20
0
 30
0
  0
VERTEX
  8
LAYER_1
 10
308.3212
 20
-176.4162
  0
VERTEX
  8
LAYER_1
 10
308.3212
 20
-176.6917
  0
VERTEX
  8
LAYER_1
 10
308.734
 20
-176.9672
  0
SEQEND
  0
POLYLINE
  8
LAYER_1
 40
0.254
 41
0.254
 66
1
 10
0
 20
0
 30
0
  0
VERTEX
  8
LAYER_1
 10
305.9794
 20
-176.4162
  0
VERTEX
  8
LAYER_1
 10
306.1177
 20
-177.2424
  0
VERTEX
  8
LAYER_1
 10
306.8057
 20
-177.7934
  0
VERTEX
  8
LAYER_1
 10
307.4943
 20
-178.069
  0
SEQEND
  0
POLYLINE
  8
LAYER_1
 40
0.254
 41
0.254
 66
1
 10
0
 20
0
 30
0
  0
VERTEX
  8
LAYER_1
 10
305.9794
 20
-176.4162
  0
VERTEX
  8
LAYER_1
 10
306.1177
 20
-177.2424
  0
VERTEX
  8
LAYER_1
 10
306.8057
 20
-177.7934
  0
VERTEX
  8
LAYER_1
 10
307.4943
 20
-178.069
  0
SEQEND
  0
POLYLINE
  8
LAYER_1
 40
0.254
 41
0.254
 66
1
 10
0
 20
0
 30
0
  0
VERTEX
  8
LAYER_1
 10
306.1177
 20
-176.2779
  0
VERTEX
  8
LAYER_1
 10
306.3926
 20
-177.1048
  0
VERTEX
  8
LAYER_1
 10
306.9436
 20
-177.6558
  0
VERTEX
  8
LAYER_1
 10
307.6322
 20
-177.9314
  0
SEQEND
  0
POLYLINE
  8
LAYER_1
 40
0.254
 41
0.254
 66
1
 10
0
 20
0
 30
0
  0
VERTEX
  8
LAYER_1
 10
306.1177
 20
-176.2779
  0
VERTEX
  8
LAYER_1
 10
306.255
 20
-177.1048
  0
VERTEX
  8
LAYER_1
 10
306.9436
 20
-177.6558
  0
VERTEX
  8
LAYER_1
 10
307.6322
 20
-177.9314
  0
SEQEND
  0
POLYLINE
  8
LAYER_1
 40
0.254
 41
0.254
 66
1
 10
0
 20
0
 30
0
  0
VERTEX
  8
LAYER_1
 10
305.9794
 20
-176.4162
  0
VERTEX
  8
LAYER_1
 10
306.1177
 20
-177.2424
  0
VERTEX
  8
LAYER_1
 10
306.8057
 20
-177.7934
  0
VERTEX
  8
LAYER_1
 10
307.4943
 20
-178.069
  0
SEQEND
  0
POLYLINE
  8
LAYER_1
 40
0.254
 41
0.254
 66
1
 10
0
 20
0
 30
0
  0
VERTEX
  8
LAYER_1
 10
307.0812
 20
-175.3144
  0
VERTEX
  8
LAYER_1
 10
306.255
 20
-170.9071
  0
SEQEND
  0
POLYLINE
  8
LAYER_1
 40
0.254
 41
0.254
 66
1
 10
0
 20
0
 30
0
 70
1
  0
VERTEX
  8
LAYER_1
 10
305.9794
 20
-176.4162
  0
VERTEX
  8
LAYER_1
 10
305.9794
 20
-164.0207
  0
SEQEND
  0
POLYLINE
  8
LAYER_1
 40
0.254
 41
0.254
 66
1
 10
0
 20
0
 30
0
 70
1
  0
VERTEX
  8
LAYER_1
 10
306.1177
 20
-164.1583
  0
VERTEX
  8
LAYER_1
 10
306.1177
 20
-176.2779
  0
SEQEND
  0
POLYLINE
  8
LAYER_1
 40
0.254
 41
0.254
 66
1
 10
0
 20
0
 30
0
  0
VERTEX
  8
LAYER_1
 10
308.734
 20
-165.1224
  0
VERTEX
  8
LAYER_1
 10
307.4943
 20
-166.6376
  0
VERTEX
  8
LAYER_1
 10
306.8057
 20
-168.428
  0
VERTEX
  8
LAYER_1
 10
306.5301
 20
-170.2184
  0
VERTEX
  8
LAYER_1
 10
306.8057
 20
-172.1467
  0
VERTEX
  8
LAYER_1
 10
307.4943
 20
-173.7992
  0
VERTEX
  8
LAYER_1
 10
308.734
 20
-175.3144
  0
SEQEND
  0
POLYLINE
  8
LAYER_1
 40
0.254
 41
0.254
 66
1
 10
0
 20
0
 30
0
  0
VERTEX
  8
LAYER_1
 10
307.4943
 20
-178.069
  0
VERTEX
  8
LAYER_1
 10
320.0277
 20
-178.069
  0
SEQEND
  0
POLYLINE
  8
LAYER_1
 40
0.254
 41
0.254
 66
1
 10
0
 20
0
 30
0
  0
VERTEX
  8
LAYER_1
 10
310.7999
 20
-173.2485
  0
VERTEX
  8
LAYER_1
 10
316.7221
 20
-173.2485
  0
SEQEND
  0
POLYLINE
  8
LAYER_1
 40
0.254
 41
0.254
 66
1
 10
0
 20
0
 30
0
  0
VERTEX
  8
LAYER_1
 10
316.7221
 20
-167.1883
  0
VERTEX
  8
LAYER_1
 10
310.7999
 20
-167.1883
  0
SEQEND
  0
POLYLINE
  8
LAYER_1
 40
0.254
 41
0.254
 66
1
 10
0
 20
0
 30
0
  0
VERTEX
  8
LAYER_1
 10
305.9794
 20
-176.4162
  0
VERTEX
  8
LAYER_1
 10
305.9794
 20
-164.0207
  0
SEQEND
  0
POLYLINE
  8
LAYER_1
 40
0.254
 41
0.254
 66
1
 10
0
 20
0
 30
0
  0
VERTEX
  8
LAYER_1
 10
318.7887
 20
-165.1224
  0
VERTEX
  8
LAYER_1
 10
317.2732
 20
-164.0207
  0
VERTEX
  8
LAYER_1
 10
315.6204
 20
-163.332
  0
VERTEX
  8
LAYER_1
 10
313.692
 20
-163.0565
  0
VERTEX
  8
LAYER_1
 10
311.9024
 20
-163.332
  0
VERTEX
  8
LAYER_1
 10
310.1116
 20
-164.0207
  0
VERTEX
  8
LAYER_1
 10
308.734
 20
-165.1224
  0
SEQEND
  0
POLYLINE
  8
LAYER_1
 40
0.254
 41
0.254
 66
1
 10
0
 20
0
 30
0
  0
VERTEX
  8
LAYER_1
 10
320.0277
 20
-178.069
  0
VERTEX
  8
LAYER_1
 10
307.4943
 20
-178.069
  0
SEQEND
  0
POLYLINE
  8
LAYER_1
 40
0.254
 41
0.254
 66
1
 10
0
 20
0
 30
0
 70
1
  0
VERTEX
  8
LAYER_1
 10
307.6322
 20
-177.9314
  0
VERTEX
  8
LAYER_1
 10
319.8905
 20
-177.9314
  0
SEQEND
  0
POLYLINE
  8
LAYER_1
 40
0.254
 41
0.254
 66
1
 10
0
 20
0
 30
0
 70
1
  0
VERTEX
  8
LAYER_1
 10
321.1295
 20
-170.2184
  0
VERTEX
  8
LAYER_1
 10
320.8539
 20
-168.2897
  0
VERTEX
  8
LAYER_1
 10
320.0277
 20
-166.6376
  0
VERTEX
  8
LAYER_1
 10
318.926
 20
-165.1224
  0
VERTEX
  8
LAYER_1
 10
317.4107
 20
-163.8827
  0
VERTEX
  8
LAYER_1
 10
315.6204
 20
-163.1941
  0
VERTEX
  8
LAYER_1
 10
313.692
 20
-162.9189
  0
VERTEX
  8
LAYER_1
 10
311.9024
 20
-163.1941
  0
VERTEX
  8
LAYER_1
 10
310.1116
 20
-163.8827
  0
VERTEX
  8
LAYER_1
 10
308.596
 20
-165.1224
  0
VERTEX
  8
LAYER_1
 10
307.4943
 20
-166.6376
  0
VERTEX
  8
LAYER_1
 10
306.6684
 20
-168.2897
  0
VERTEX
  8
LAYER_1
 10
306.3926
 20
-170.2184
  0
VERTEX
  8
LAYER_1
 10
306.6684
 20
-172.1467
  0
VERTEX
  8
LAYER_1
 10
307.4943
 20
-173.9371
  0
VERTEX
  8
LAYER_1
 10
308.596
 20
-175.452
  0
VERTEX
  8
LAYER_1
 10
310.1116
 20
-176.5541
  0
VERTEX
  8
LAYER_1
 10
311.9024
 20
-177.2424
  0
VERTEX
  8
LAYER_1
 10
313.692
 20
-177.5179
  0
VERTEX
  8
LAYER_1
 10
315.6204
 20
-177.2424
  0
VERTEX
  8
LAYER_1
 10
317.4107
 20
-176.5541
  0
VERTEX
  8
LAYER_1
 10
318.926
 20
-175.452
  0
VERTEX
  8
LAYER_1
 10
320.0277
 20
-173.9371
  0
VERTEX
  8
LAYER_1
 10
320.8539
 20
-172.1467
  0
SEQEND
  0
POLYLINE
  8
LAYER_1
 40
0.254
 41
0.254
 66
1
 10
0
 20
0
 30
0
  0
VERTEX
  8
LAYER_1
 10
308.734
 20
-175.3144
  0
VERTEX
  8
LAYER_1
 10
310.1116
 20
-176.4162
  0
VERTEX
  8
LAYER_1
 10
311.9024
 20
-177.1048
  0
VERTEX
  8
LAYER_1
 10
313.692
 20
-177.3803
  0
VERTEX
  8
LAYER_1
 10
315.6204
 20
-177.1048
  0
VERTEX
  8
LAYER_1
 10
317.2732
 20
-176.4162
  0
VERTEX
  8
LAYER_1
 10
318.7887
 20
-175.3144
  0
SEQEND
  0
POLYLINE
  8
LAYER_1
 40
0.254
 41
0.254
 66
1
 10
0
 20
0
 30
0
 70
1
  0
VERTEX
  8
LAYER_1
 10
321.1295
 20
-170.2184
  0
VERTEX
  8
LAYER_1
 10
320.8539
 20
-168.2897
  0
VERTEX
  8
LAYER_1
 10
320.0277
 20
-166.6376
  0
VERTEX
  8
LAYER_1
 10
318.926
 20
-165.1224
  0
VERTEX
  8
LAYER_1
 10
317.4107
 20
-163.8827
  0
VERTEX
  8
LAYER_1
 10
315.6204
 20
-163.1941
  0
VERTEX
  8
LAYER_1
 10
313.692
 20
-162.9189
  0
VERTEX
  8
LAYER_1
 10
311.9024
 20
-163.1941
  0
VERTEX
  8
LAYER_1
 10
310.1116
 20
-163.8827
  0
VERTEX
  8
LAYER_1
 10
308.596
 20
-165.1224
  0
VERTEX
  8
LAYER_1
 10
307.4943
 20
-166.6376
  0
VERTEX
  8
LAYER_1
 10
306.6684
 20
-168.2897
  0
VERTEX
  8
LAYER_1
 10
306.3926
 20
-170.2184
  0
VERTEX
  8
LAYER_1
 10
306.6684
 20
-172.1467
  0
VERTEX
  8
LAYER_1
 10
307.4943
 20
-173.9371
  0
VERTEX
  8
LAYER_1
 10
308.596
 20
-175.452
  0
VERTEX
  8
LAYER_1
 10
310.1116
 20
-176.5541
  0
VERTEX
  8
LAYER_1
 10
311.9024
 20
-177.2424
  0
VERTEX
  8
LAYER_1
 10
313.692
 20
-177.5179
  0
VERTEX
  8
LAYER_1
 10
315.6204
 20
-177.2424
  0
VERTEX
  8
LAYER_1
 10
317.4107
 20
-176.5541
  0
VERTEX
  8
LAYER_1
 10
318.926
 20
-175.452
  0
VERTEX
  8
LAYER_1
 10
320.0277
 20
-173.9371
  0
VERTEX
  8
LAYER_1
 10
320.8539
 20
-172.1467
  0
SEQEND
  0
ENDBLK
  0
BLOCK
  8
LAYER_1
  2
AIGNBL0101000A
 70
64
 10
0
 20
0
 30
0
  3
AIGNBL0101000A
  0
POLYLINE
  8
LAYER_1
 40
0.254
 41
0.254
 66
1
 10
0
 20
0
 30
0
 70
1
  0
VERTEX
  8
LAYER_1
 10
356.9389
 20
-170.2184
  0
VERTEX
  8
LAYER_1
 10
356.664
 20
-168.2897
  0
VERTEX
  8
LAYER_1
 10
355.9747
 20
-166.6376
  0
VERTEX
  8
LAYER_1
 10
354.735
 20
-165.1224
  0
VERTEX
  8
LAYER_1
 10
353.2209
 20
-163.8831
  0
VERTEX
  8
LAYER_1
 10
351.4301
 20
-163.1944
  0
VERTEX
  8
LAYER_1
 10
349.6397
 20
-162.9189
  0
VERTEX
  8
LAYER_1
 10
347.7111
 20
-163.1944
  0
VERTEX
  8
LAYER_1
 10
345.9207
 20
-163.8831
  0
VERTEX
  8
LAYER_1
 10
344.4055
 20
-165.1224
  0
VERTEX
  8
LAYER_1
 10
343.3044
 20
-166.6376
  0
VERTEX
  8
LAYER_1
 10
342.4775
 20
-168.2897
  0
VERTEX
  8
LAYER_1
 10
342.2023
 20
-170.2184
  0
VERTEX
  8
LAYER_1
 10
342.4775
 20
-172.1467
  0
VERTEX
  8
LAYER_1
 10
343.3044
 20
-173.9371
  0
VERTEX
  8
LAYER_1
 10
344.4055
 20
-175.452
  0
VERTEX
  8
LAYER_1
 10
345.9207
 20
-176.554
  0
VERTEX
  8
LAYER_1
 10
347.7111
 20
-177.2427
  0
VERTEX
  8
LAYER_1
 10
349.6397
 20
-177.5179
  0
VERTEX
  8
LAYER_1
 10
351.4301
 20
-177.2427
  0
VERTEX
  8
LAYER_1
 10
353.2209
 20
-176.554
  0
VERTEX
  8
LAYER_1
 10
354.735
 20
-175.452
  0
VERTEX
  8
LAYER_1
 10
355.9747
 20
-173.9371
  0
VERTEX
  8
LAYER_1
 10
356.664
 20
-172.1467
  0
SEQEND
  0
POLYLINE
  8
LAYER_1
 40
0.254
 41
0.254
 66
1
 10
0
 20
0
 30
0
  0
VERTEX
  8
LAYER_1
 10
348.8128
 20
-177.6558
  0
VERTEX
  8
LAYER_1
 10
344.5437
 20
-176.9672
  0
SEQEND
  0
POLYLINE
  8
LAYER_1
 40
0.254
 41
0.254
 66
1
 10
0
 20
0
 30
0
  0
VERTEX
  8
LAYER_1
 10
344.5437
 20
-175.3144
  0
VERTEX
  8
LAYER_1
 10
346.0583
 20
-176.4161
  0
VERTEX
  8
LAYER_1
 10
347.7111
 20
-177.1047
  0
VERTEX
  8
LAYER_1
 10
349.6397
 20
-177.3803
  0
VERTEX
  8
LAYER_1
 10
351.4301
 20
-177.1047
  0
VERTEX
  8
LAYER_1
 10
353.2209
 20
-176.4161
  0
VERTEX
  8
LAYER_1
 10
354.5974
 20
-175.3144
  0
SEQEND
  0
POLYLINE
  8
LAYER_1
 40
0.254
 41
0.254
 66
1
 10
0
 20
0
 30
0
  0
VERTEX
  8
LAYER_1
 10
355.8371
 20
-162.3678
  0
VERTEX
  8
LAYER_1
 10
343.3044
 20
-162.3678
  0
SEQEND
  0
POLYLINE
  8
LAYER_1
 40
0.254
 41
0.254
 66
1
 10
0
 20
0
 30
0
  0
VERTEX
  8
LAYER_1
 10
343.5792
 20
-162.5051
  0
VERTEX
  8
LAYER_1
 10
355.6992
 20
-162.5051
  0
SEQEND
  0
POLYLINE
  8
LAYER_1
 40
0.254
 41
0.254
 66
1
 10
0
 20
0
 30
0
  0
VERTEX
  8
LAYER_1
 10
355.6992
 20
-162.6434
  0
VERTEX
  8
LAYER_1
 10
343.5792
 20
-162.6434
  0
SEQEND
  0
POLYLINE
  8
LAYER_1
 40
0.254
 41
0.254
 66
1
 10
0
 20
0
 30
0
  0
VERTEX
  8
LAYER_1
 10
363.2742
 20
-197.2132
  0
VERTEX
  8
LAYER_1
 10
363.8252
 20
-196.9369
  0
VERTEX
  8
LAYER_1
 10
363.9635
 20
-196.3869
  0
SEQEND
  0
POLYLINE
  8
LAYER_1
 40
0.254
 41
0.254
 66
1
 10
0
 20
0
 30
0
  0
VERTEX
  8
LAYER_1
 10
363.9635
 20
-144.1877
  0
VERTEX
  8
LAYER_1
 10
363.9635
 20
-196.3869
  0
SEQEND
  0
ENDBLK
  0
BLOCK
  8
LAYER_1
  2
AIGNBL0101000B
 70
64
 10
0
 20
0
 30
0
  3
AIGNBL0101000B
  0
POLYLINE
  8
LAYER_1
 40
0.254
 41
0.254
 66
1
 10
0
 20
0
 30
0
  0
VERTEX
  8
LAYER_1
 10
363.9635
 20
-144.1878
  0
VERTEX
  8
LAYER_1
 10
363.8252
 20
-143.6367
  0
VERTEX
  8
LAYER_1
 10
363.2742
 20
-143.3616
  0
SEQEND
  0
POLYLINE
  8
LAYER_1
 40
0.254
 41
0.254
 66
1
 10
0
 20
0
 30
0
 70
1
  0
VERTEX
  8
LAYER_1
 10
355.9747
 20
-164.1583
  0
VERTEX
  8
LAYER_1
 10
355.8371
 20
-164.0207
  0
VERTEX
  8
LAYER_1
 10
355.6991
 20
-163.8827
  0
VERTEX
  8
LAYER_1
 10
355.4243
 20
-164.0207
  0
VERTEX
  8
LAYER_1
 10
355.4243
 20
-164.1583
  0
VERTEX
  8
LAYER_1
 10
355.4243
 20
-164.2962
  0
VERTEX
  8
LAYER_1
 10
355.6991
 20
-164.4338
  0
VERTEX
  8
LAYER_1
 10
355.8371
 20
-164.2962
  0
SEQEND
  0
POLYLINE
  8
LAYER_1
 40
0.254
 41
0.254
 66
1
 10
0
 20
0
 30
0
  0
VERTEX
  8
LAYER_1
 10
355.1485
 20
-164.1583
  0
VERTEX
  8
LAYER_1
 10
355.286
 20
-164.5714
  0
VERTEX
  8
LAYER_1
 10
355.6991
 20
-164.7093
  0
SEQEND
  0
POLYLINE
  8
LAYER_1
 40
0.254
 41
0.254
 66
1
 10
0
 20
0
 30
0
  0
VERTEX
  8
LAYER_1
 10
356.2502
 20
-165.1224
  0
VERTEX
  8
LAYER_1
 10
356.113
 20
-164.8466
  0
VERTEX
  8
LAYER_1
 10
355.6991
 20
-164.7093
  0
SEQEND
  0
POLYLINE
  8
LAYER_1
 40
0.254
 41
0.254
 66
1
 10
0
 20
0
 30
0
  0
VERTEX
  8
LAYER_1
 10
355.1485
 20
-164.1583
  0
VERTEX
  8
LAYER_1
 10
355.0105
 20
-163.7452
  0
VERTEX
  8
LAYER_1
 10
354.735
 20
-163.6076
  0
SEQEND
  0
POLYLINE
  8
LAYER_1
 40
0.254
 41
0.254
 66
1
 10
0
 20
0
 30
0
  0
VERTEX
  8
LAYER_1
 10
352.5315
 20
-167.1883
  0
VERTEX
  8
LAYER_1
 10
346.6093
 20
-167.1883
  0
SEQEND
  0
POLYLINE
  8
LAYER_1
 40
0.254
 41
0.254
 66
1
 10
0
 20
0
 30
0
  0
VERTEX
  8
LAYER_1
 10
346.6093
 20
-173.2485
  0
VERTEX
  8
LAYER_1
 10
352.5315
 20
-173.2485
  0
SEQEND
  0
POLYLINE
  8
LAYER_1
 40
0.254
 41
0.254
 66
1
 10
0
 20
0
 30
0
  0
VERTEX
  8
LAYER_1
 10
350.3283
 20
-162.781
  0
VERTEX
  8
LAYER_1
 10
354.735
 20
-163.6076
  0
SEQEND
  0
POLYLINE
  8
LAYER_1
 40
0.254
 41
0.254
 66
1
 10
0
 20
0
 30
0
  0
VERTEX
  8
LAYER_1
 10
346.6093
 20
-167.1883
  0
VERTEX
  8
LAYER_1
 10
346.6093
 20
-173.2485
  0
SEQEND
  0
POLYLINE
  8
LAYER_1
 40
0.254
 41
0.254
 66
1
 10
0
 20
0
 30
0
  0
VERTEX
  8
LAYER_1
 10
348.8128
 20
-162.781
  0
VERTEX
  8
LAYER_1
 10
350.3283
 20
-162.781
  0
SEQEND
  0
POLYLINE
  8
LAYER_1
 40
0.254
 41
0.254
 66
1
 10
0
 20
0
 30
0
  0
VERTEX
  8
LAYER_1
 10
356.2502
 20
-165.1224
  0
VERTEX
  8
LAYER_1
 10
357.0771
 20
-169.5298
  0
SEQEND
  0
POLYLINE
  8
LAYER_1
 40
0.254
 41
0.254
 66
1
 10
0
 20
0
 30
0
  0
VERTEX
  8
LAYER_1
 10
352.5315
 20
-173.2485
  0
VERTEX
  8
LAYER_1
 10
352.5315
 20
-167.1883
  0
SEQEND
  0
POLYLINE
  8
LAYER_1
 40
0.254
 41
0.254
 66
1
 10
0
 20
0
 30
0
  0
VERTEX
  8
LAYER_1
 10
357.0771
 20
-169.5298
  0
VERTEX
  8
LAYER_1
 10
357.0771
 20
-170.9071
  0
SEQEND
  0
POLYLINE
  8
LAYER_1
 40
0.254
 41
0.254
 66
1
 10
0
 20
0
 30
0
  0
VERTEX
  8
LAYER_1
 10
355.6991
 20
-177.9314
  0
VERTEX
  8
LAYER_1
 10
356.3878
 20
-177.6558
  0
VERTEX
  8
LAYER_1
 10
357.0771
 20
-177.1048
  0
VERTEX
  8
LAYER_1
 10
357.2147
 20
-176.2779
  0
SEQEND
  0
POLYLINE
  8
LAYER_1
 40
0.254
 41
0.254
 66
1
 10
0
 20
0
 30
0
  0
VERTEX
  8
LAYER_1
 10
355.6991
 20
-177.9314
  0
VERTEX
  8
LAYER_1
 10
356.3878
 20
-177.6558
  0
VERTEX
  8
LAYER_1
 10
357.0771
 20
-177.1048
  0
VERTEX
  8
LAYER_1
 10
357.2147
 20
-176.2779
  0
SEQEND
  0
POLYLINE
  8
LAYER_1
 40
0.254
 41
0.254
 66
1
 10
0
 20
0
 30
0
  0
VERTEX
  8
LAYER_1
 10
355.6991
 20
-175.7275
  0
VERTEX
  8
LAYER_1
 10
355.286
 20
-175.8651
  0
VERTEX
  8
LAYER_1
 10
355.1485
 20
-176.4162
  0
SEQEND
  0
POLYLINE
  8
LAYER_1
 40
0.254
 41
0.254
 66
1
 10
0
 20
0
 30
0
 70
1
  0
VERTEX
  8
LAYER_1
 10
355.9747
 20
-176.2779
  0
VERTEX
  8
LAYER_1
 10
355.8371
 20
-176.1406
  0
VERTEX
  8
LAYER_1
 10
355.6991
 20
-176.003
  0
VERTEX
  8
LAYER_1
 10
355.4243
 20
-176.1406
  0
VERTEX
  8
LAYER_1
 10
355.4243
 20
-176.2779
  0
VERTEX
  8
LAYER_1
 10
355.4243
 20
-176.5541
  0
VERTEX
  8
LAYER_1
 10
355.6991
 20
-176.5541
  0
VERTEX
  8
LAYER_1
 10
355.8371
 20
-176.5541
  0
SEQEND
  0
POLYLINE
  8
LAYER_1
 40
0.254
 41
0.254
 66
1
 10
0
 20
0
 30
0
  0
VERTEX
  8
LAYER_1
 10
355.6991
 20
-175.7275
  0
VERTEX
  8
LAYER_1
 10
356.113
 20
-175.5899
  0
VERTEX
  8
LAYER_1
 10
356.2502
 20
-175.3144
  0
SEQEND
  0
POLYLINE
  8
LAYER_1
 40
0.254
 41
0.254
 66
1
 10
0
 20
0
 30
0
  0
VERTEX
  8
LAYER_1
 10
354.735
 20
-176.9672
  0
VERTEX
  8
LAYER_1
 10
355.0105
 20
-176.6917
  0
VERTEX
  8
LAYER_1
 10
355.1485
 20
-176.4162
  0
SEQEND
  0
POLYLINE
  8
LAYER_1
 40
0.254
 41
0.254
 66
1
 10
0
 20
0
 30
0
  0
VERTEX
  8
LAYER_1
 10
354.735
 20
-176.9672
  0
VERTEX
  8
LAYER_1
 10
350.3283
 20
-177.6558
  0
VERTEX
  8
LAYER_1
 10
348.8128
 20
-177.6558
  0
SEQEND
  0
POLYLINE
  8
LAYER_1
 40
0.254
 41
0.254
 66
1
 10
0
 20
0
 30
0
 70
1
  0
VERTEX
  8
LAYER_1
 10
357.3519
 20
-176.4162
  0
VERTEX
  8
LAYER_1
 10
357.3519
 20
-164.0207
  0
SEQEND
  0
POLYLINE
  8
LAYER_1
 40
0.254
 41
0.254
 66
1
 10
0
 20
0
 30
0
  0
VERTEX
  8
LAYER_1
 10
354.5974
 20
-175.3144
  0
VERTEX
  8
LAYER_1
 10
355.8371
 20
-173.7992
  0
VERTEX
  8
LAYER_1
 10
356.5261
 20
-172.1467
  0
VERTEX
  8
LAYER_1
 10
356.8013
 20
-170.2184
  0
VERTEX
  8
LAYER_1
 10
356.5261
 20
-168.428
  0
VERTEX
  8
LAYER_1
 10
355.8371
 20
-166.6376
  0
VERTEX
  8
LAYER_1
 10
354.5974
 20
-165.1224
  0
SEQEND
  0
POLYLINE
  8
LAYER_1
 40
0.254
 41
0.254
 66
1
 10
0
 20
0
 30
0
 70
1
  0
VERTEX
  8
LAYER_1
 10
357.2147
 20
-164.1583
  0
VERTEX
  8
LAYER_1
 10
357.2147
 20
-176.2779
  0
SEQEND
  0
POLYLINE
  8
LAYER_1
 40
0.254
 41
0.254
 66
1
 10
0
 20
0
 30
0
  0
VERTEX
  8
LAYER_1
 10
357.0771
 20
-170.9071
  0
VERTEX
  8
LAYER_1
 10
356.2502
 20
-175.3144
  0
SEQEND
  0
POLYLINE
  8
LAYER_1
 40
0.254
 41
0.254
 66
1
 10
0
 20
0
 30
0
  0
VERTEX
  8
LAYER_1
 10
355.8371
 20
-178.069
  0
VERTEX
  8
LAYER_1
 10
356.664
 20
-177.7934
  0
VERTEX
  8
LAYER_1
 10
357.2147
 20
-177.2424
  0
VERTEX
  8
LAYER_1
 10
357.3519
 20
-176.4162
  0
SEQEND
  0
POLYLINE
  8
LAYER_1
 40
0.254
 41
0.254
 66
1
 10
0
 20
0
 30
0
  0
VERTEX
  8
LAYER_1
 10
355.8371
 20
-178.069
  0
VERTEX
  8
LAYER_1
 10
356.664
 20
-177.7934
  0
VERTEX
  8
LAYER_1
 10
357.2147
 20
-177.2424
  0
VERTEX
  8
LAYER_1
 10
357.3519
 20
-176.4162
  0
SEQEND
  0
POLYLINE
  8
LAYER_1
 40
0.254
 41
0.254
 66
1
 10
0
 20
0
 30
0
  0
VERTEX
  8
LAYER_1
 10
357.3519
 20
-164.0207
  0
VERTEX
  8
LAYER_1
 10
357.2147
 20
-163.1941
  0
VERTEX
  8
LAYER_1
 10
356.664
 20
-162.6434
  0
VERTEX
  8
LAYER_1
 10
355.8371
 20
-162.3679
  0
SEQEND
  0
POLYLINE
  8
LAYER_1
 40
0.254
 41
0.254
 66
1
 10
0
 20
0
 30
0
  0
VERTEX
  8
LAYER_1
 10
357.2147
 20
-164.1583
  0
VERTEX
  8
LAYER_1
 10
357.0771
 20
-163.332
  0
VERTEX
  8
LAYER_1
 10
356.3878
 20
-162.781
  0
VERTEX
  8
LAYER_1
 10
355.6991
 20
-162.6434
  0
SEQEND
  0
POLYLINE
  8
LAYER_1
 40
0.254
 41
0.254
 66
1
 10
0
 20
0
 30
0
  0
VERTEX
  8
LAYER_1
 10
357.2147
 20
-164.1583
  0
VERTEX
  8
LAYER_1
 10
357.0771
 20
-163.332
  0
VERTEX
  8
LAYER_1
 10
356.3878
 20
-162.781
  0
VERTEX
  8
LAYER_1
 10
355.6991
 20
-162.5051
  0
SEQEND
  0
POLYLINE
  8
LAYER_1
 40
0.254
 41
0.254
 66
1
 10
0
 20
0
 30
0
  0
VERTEX
  8
LAYER_1
 10
357.3519
 20
-164.0207
  0
VERTEX
  8
LAYER_1
 10
357.2147
 20
-163.1941
  0
VERTEX
  8
LAYER_1
 10
356.664
 20
-162.6434
  0
VERTEX
  8
LAYER_1
 10
355.8371
 20
-162.3679
  0
SEQEND
  0
POLYLINE
  8
LAYER_1
 40
0.254
 41
0.254
 66
1
 10
0
 20
0
 30
0
  0
VERTEX
  8
LAYER_1
 10
344.5437
 20
-163.6076
  0
VERTEX
  8
LAYER_1
 10
344.1302
 20
-163.7452
  0
VERTEX
  8
LAYER_1
 10
344.1302
 20
-164.1583
  0
SEQEND
  0
POLYLINE
  8
LAYER_1
 40
0.254
 41
0.254
 66
1
 10
0
 20
0
 30
0
  0
VERTEX
  8
LAYER_1
 10
343.442
 20
-164.7093
  0
VERTEX
  8
LAYER_1
 10
343.1661
 20
-164.8466
  0
VERTEX
  8
LAYER_1
 10
342.8913
 20
-165.1224
  0
SEQEND
  0
POLYLINE
  8
LAYER_1
 40
0.254
 41
0.254
 66
1
 10
0
 20
0
 30
0
  0
VERTEX
  8
LAYER_1
 10
343.442
 20
-164.7093
  0
VERTEX
  8
LAYER_1
 10
343.8547
 20
-164.5714
  0
VERTEX
  8
LAYER_1
 10
344.1302
 20
-164.1583
  0
SEQEND
  0
POLYLINE
  8
LAYER_1
 40
0.254
 41
0.254
 66
1
 10
0
 20
0
 30
0
 70
1
  0
VERTEX
  8
LAYER_1
 10
343.8547
 20
-164.1583
  0
VERTEX
  8
LAYER_1
 10
343.7168
 20
-164.0207
  0
VERTEX
  8
LAYER_1
 10
343.5792
 20
-163.8827
  0
VERTEX
  8
LAYER_1
 10
343.3044
 20
-164.0207
  0
VERTEX
  8
LAYER_1
 10
343.3044
 20
-164.1583
  0
VERTEX
  8
LAYER_1
 10
343.3044
 20
-164.2962
  0
VERTEX
  8
LAYER_1
 10
343.5792
 20
-164.4338
  0
VERTEX
  8
LAYER_1
 10
343.7168
 20
-164.2962
  0
SEQEND
  0
POLYLINE
  8
LAYER_1
 40
0.254
 41
0.254
 66
1
 10
0
 20
0
 30
0
  0
VERTEX
  8
LAYER_1
 10
342.8913
 20
-165.1224
  0
VERTEX
  8
LAYER_1
 10
342.2026
 20
-169.5298
  0
VERTEX
  8
LAYER_1
 10
342.2026
 20
-170.9071
  0
SEQEND
  0
POLYLINE
  8
LAYER_1
 40
0.254
 41
0.254
 66
1
 10
0
 20
0
 30
0
  0
VERTEX
  8
LAYER_1
 10
344.1302
 20
-176.4162
  0
VERTEX
  8
LAYER_1
 10
344.1302
 20
-176.6917
  0
VERTEX
  8
LAYER_1
 10
344.5437
 20
-176.9672
  0
SEQEND
  0
POLYLINE
  8
LAYER_1
 40
0.254
 41
0.254
 66
1
 10
0
 20
0
 30
0
  0
VERTEX
  8
LAYER_1
 10
341.7888
 20
-176.4162
  0
VERTEX
  8
LAYER_1
 10
341.9264
 20
-177.2424
  0
VERTEX
  8
LAYER_1
 10
342.615
 20
-177.7934
  0
VERTEX
  8
LAYER_1
 10
343.3044
 20
-178.069
  0
SEQEND
  0
POLYLINE
  8
LAYER_1
 40
0.254
 41
0.254
 66
1
 10
0
 20
0
 30
0
  0
VERTEX
  8
LAYER_1
 10
341.7888
 20
-176.4162
  0
VERTEX
  8
LAYER_1
 10
341.9264
 20
-177.2424
  0
VERTEX
  8
LAYER_1
 10
342.615
 20
-177.7934
  0
VERTEX
  8
LAYER_1
 10
343.3044
 20
-178.069
  0
SEQEND
  0
POLYLINE
  8
LAYER_1
 40
0.254
 41
0.254
 66
1
 10
0
 20
0
 30
0
  0
VERTEX
  8
LAYER_1
 10
342.8913
 20
-175.3144
  0
VERTEX
  8
LAYER_1
 10
343.1661
 20
-175.5899
  0
VERTEX
  8
LAYER_1
 10
343.442
 20
-175.7275
  0
SEQEND
  0
POLYLINE
  8
LAYER_1
 40
0.254
 41
0.254
 66
1
 10
0
 20
0
 30
0
  0
VERTEX
  8
LAYER_1
 10
341.9264
 20
-176.2779
  0
VERTEX
  8
LAYER_1
 10
342.2026
 20
-177.1048
  0
VERTEX
  8
LAYER_1
 10
342.7533
 20
-177.6558
  0
VERTEX
  8
LAYER_1
 10
343.5792
 20
-177.9314
  0
SEQEND
  0
POLYLINE
  8
LAYER_1
 40
0.254
 41
0.254
 66
1
 10
0
 20
0
 30
0
  0
VERTEX
  8
LAYER_1
 10
341.9264
 20
-176.2779
  0
VERTEX
  8
LAYER_1
 10
342.2026
 20
-177.1048
  0
VERTEX
  8
LAYER_1
 10
342.7533
 20
-177.6558
  0
VERTEX
  8
LAYER_1
 10
343.5792
 20
-177.9314
  0
SEQEND
  0
POLYLINE
  8
LAYER_1
 40
0.254
 41
0.254
 66
1
 10
0
 20
0
 30
0
  0
VERTEX
  8
LAYER_1
 10
344.1302
 20
-176.4162
  0
VERTEX
  8
LAYER_1
 10
343.8547
 20
-175.8651
  0
VERTEX
  8
LAYER_1
 10
343.442
 20
-175.7275
  0
SEQEND
  0
POLYLINE
  8
LAYER_1
 40
0.254
 41
0.254
 66
1
 10
0
 20
0
 30
0
 70
1
  0
VERTEX
  8
LAYER_1
 10
343.8547
 20
-176.2779
  0
VERTEX
  8
LAYER_1
 10
343.7168
 20
-176.1406
  0
VERTEX
  8
LAYER_1
 10
343.5792
 20
-176.003
  0
VERTEX
  8
LAYER_1
 10
343.3044
 20
-176.1406
  0
VERTEX
  8
LAYER_1
 10
343.3044
 20
-176.2779
  0
VERTEX
  8
LAYER_1
 10
343.3044
 20
-176.5541
  0
VERTEX
  8
LAYER_1
 10
343.5792
 20
-176.5541
  0
VERTEX
  8
LAYER_1
 10
343.7168
 20
-176.5541
  0
SEQEND
  0
POLYLINE
  8
LAYER_1
 40
0.254
 41
0.254
 66
1
 10
0
 20
0
 30
0
  0
VERTEX
  8
LAYER_1
 10
341.7888
 20
-176.4162
  0
VERTEX
  8
LAYER_1
 10
341.7888
 20
-164.0207
  0
SEQEND
  0
POLYLINE
  8
LAYER_1
 40
0.254
 41
0.254
 66
1
 10
0
 20
0
 30
0
  0
VERTEX
  8
LAYER_1
 10
344.5437
 20
-165.1224
  0
VERTEX
  8
LAYER_1
 10
343.442
 20
-166.6376
  0
VERTEX
  8
LAYER_1
 10
342.615
 20
-168.428
  0
VERTEX
  8
LAYER_1
 10
342.4775
 20
-170.2184
  0
VERTEX
  8
LAYER_1
 10
342.615
 20
-172.1467
  0
VERTEX
  8
LAYER_1
 10
343.442
 20
-173.7992
  0
VERTEX
  8
LAYER_1
 10
344.5437
 20
-175.3144
  0
SEQEND
  0
POLYLINE
  8
LAYER_1
 40
0.254
 41
0.254
 66
1
 10
0
 20
0
 30
0
 70
1
  0
VERTEX
  8
LAYER_1
 10
341.9264
 20
-176.2779
  0
VERTEX
  8
LAYER_1
 10
341.9264
 20
-164.1583
  0
SEQEND
  0
POLYLINE
  8
LAYER_1
 40
0.254
 41
0.254
 66
1
 10
0
 20
0
 30
0
  0
VERTEX
  8
LAYER_1
 10
342.8913
 20
-175.3144
  0
VERTEX
  8
LAYER_1
 10
342.2026
 20
-170.9071
  0
SEQEND
  0
POLYLINE
  8
LAYER_1
 40
0.254
 41
0.254
 66
1
 10
0
 20
0
 30
0
  0
VERTEX
  8
LAYER_1
 10
343.3044
 20
-162.3679
  0
VERTEX
  8
LAYER_1
 10
342.615
 20
-162.6434
  0
VERTEX
  8
LAYER_1
 10
341.9264
 20
-163.1941
  0
VERTEX
  8
LAYER_1
 10
341.7888
 20
-164.0207
  0
VERTEX
  8
LAYER_1
 10
341.7888
 20
-176.4162
  0
SEQEND
  0
POLYLINE
  8
LAYER_1
 40
0.254
 41
0.254
 66
1
 10
0
 20
0
 30
0
  0
VERTEX
  8
LAYER_1
 10
343.5792
 20
-162.6434
  0
VERTEX
  8
LAYER_1
 10
342.7533
 20
-162.781
  0
VERTEX
  8
LAYER_1
 10
342.2026
 20
-163.332
  0
VERTEX
  8
LAYER_1
 10
341.9264
 20
-164.1583
  0
SEQEND
  0
POLYLINE
  8
LAYER_1
 40
0.254
 41
0.254
 66
1
 10
0
 20
0
 30
0
  0
VERTEX
  8
LAYER_1
 10
343.5792
 20
-162.5051
  0
VERTEX
  8
LAYER_1
 10
342.7533
 20
-162.781
  0
VERTEX
  8
LAYER_1
 10
342.2026
 20
-163.332
  0
VERTEX
  8
LAYER_1
 10
341.9264
 20
-164.1583
  0
SEQEND
  0
POLYLINE
  8
LAYER_1
 40
0.254
 41
0.254
 66
1
 10
0
 20
0
 30
0
  0
VERTEX
  8
LAYER_1
 10
343.3044
 20
-162.3679
  0
VERTEX
  8
LAYER_1
 10
342.615
 20
-162.6434
  0
VERTEX
  8
LAYER_1
 10
341.9264
 20
-163.1941
  0
VERTEX
  8
LAYER_1
 10
341.7888
 20
-164.0207
  0
SEQEND
  0
POLYLINE
  8
LAYER_1
 40
0.254
 41
0.254
 66
1
 10
0
 20
0
 30
0
 70
1
  0
VERTEX
  8
LAYER_1
 10
356.9388
 20
-170.2184
  0
VERTEX
  8
LAYER_1
 10
356.664
 20
-168.2897
  0
VERTEX
  8
LAYER_1
 10
355.9747
 20
-166.6376
  0
VERTEX
  8
LAYER_1
 10
354.735
 20
-165.1224
  0
VERTEX
  8
LAYER_1
 10
353.2208
 20
-163.8827
  0
VERTEX
  8
LAYER_1
 10
351.4304
 20
-163.1941
  0
VERTEX
  8
LAYER_1
 10
349.6397
 20
-162.9189
  0
VERTEX
  8
LAYER_1
 10
347.711
 20
-163.1941
  0
VERTEX
  8
LAYER_1
 10
345.9206
 20
-163.8827
  0
VERTEX
  8
LAYER_1
 10
344.4054
 20
-165.1224
  0
VERTEX
  8
LAYER_1
 10
343.3044
 20
-166.6376
  0
VERTEX
  8
LAYER_1
 10
342.4775
 20
-168.2897
  0
VERTEX
  8
LAYER_1
 10
342.2026
 20
-170.2184
  0
VERTEX
  8
LAYER_1
 10
342.4775
 20
-172.1467
  0
VERTEX
  8
LAYER_1
 10
343.3044
 20
-173.9371
  0
VERTEX
  8
LAYER_1
 10
344.4054
 20
-175.452
  0
VERTEX
  8
LAYER_1
 10
345.9206
 20
-176.5541
  0
VERTEX
  8
LAYER_1
 10
347.711
 20
-177.2424
  0
VERTEX
  8
LAYER_1
 10
349.6397
 20
-177.5179
  0
VERTEX
  8
LAYER_1
 10
351.4304
 20
-177.2424
  0
VERTEX
  8
LAYER_1
 10
353.2208
 20
-176.5541
  0
VERTEX
  8
LAYER_1
 10
354.735
 20
-175.452
  0
VERTEX
  8
LAYER_1
 10
355.9747
 20
-173.9371
  0
VERTEX
  8
LAYER_1
 10
356.664
 20
-172.1467
  0
SEQEND
  0
POLYLINE
  8
LAYER_1
 40
0.254
 41
0.254
 66
1
 10
0
 20
0
 30
0
  0
VERTEX
  8
LAYER_1
 10
343.3044
 20
-178.069
  0
VERTEX
  8
LAYER_1
 10
355.8371
 20
-178.069
  0
SEQEND
  0
POLYLINE
  8
LAYER_1
 40
0.254
 41
0.254
 66
1
 10
0
 20
0
 30
0
  0
VERTEX
  8
LAYER_1
 10
343.3044
 20
-162.3679
  0
VERTEX
  8
LAYER_1
 10
355.8371
 20
-162.3679
  0
SEQEND
  0
POLYLINE
  8
LAYER_1
 40
0.254
 41
0.254
 66
1
 10
0
 20
0
 30
0
 70
1
  0
VERTEX
  8
LAYER_1
 10
355.6991
 20
-177.9314
  0
VERTEX
  8
LAYER_1
 10
343.5792
 20
-177.9314
  0
SEQEND
  0
POLYLINE
  8
LAYER_1
 40
0.254
 41
0.254
 66
1
 10
0
 20
0
 30
0
  0
VERTEX
  8
LAYER_1
 10
344.5437
 20
-163.6076
  0
VERTEX
  8
LAYER_1
 10
348.8128
 20
-162.781
  0
SEQEND
  0
POLYLINE
  8
LAYER_1
 40
0.254
 41
0.254
 66
1
 10
0
 20
0
 30
0
  0
VERTEX
  8
LAYER_1
 10
355.8371
 20
-178.069
  0
VERTEX
  8
LAYER_1
 10
343.3044
 20
-178.069
  0
SEQEND
  0
POLYLINE
  8
LAYER_1
 40
0.254
 41
0.254
 66
1
 10
0
 20
0
 30
0
  0
VERTEX
  8
LAYER_1
 10
354.5974
 20
-165.1224
  0
VERTEX
  8
LAYER_1
 10
353.2208
 20
-164.0207
  0
VERTEX
  8
LAYER_1
 10
351.4304
 20
-163.332
  0
VERTEX
  8
LAYER_1
 10
349.6397
 20
-163.0565
  0
VERTEX
  8
LAYER_1
 10
347.711
 20
-163.332
  0
VERTEX
  8
LAYER_1
 10
346.0582
 20
-164.0207
  0
VERTEX
  8
LAYER_1
 10
344.5437
 20
-165.1224
  0
SEQEND
  0
POLYLINE
  8
LAYER_1
 40
0.254
 41
0.254
 66
1
 10
0
 20
0
 30
0
 70
1
  0
VERTEX
  8
LAYER_1
 10
356.9388
 20
-170.2184
  0
VERTEX
  8
LAYER_1
 10
356.664
 20
-168.2897
  0
VERTEX
  8
LAYER_1
 10
355.9747
 20
-166.6376
  0
VERTEX
  8
LAYER_1
 10
354.735
 20
-165.1224
  0
VERTEX
  8
LAYER_1
 10
353.2208
 20
-163.8827
  0
VERTEX
  8
LAYER_1
 10
351.4304
 20
-163.1941
  0
VERTEX
  8
LAYER_1
 10
349.6397
 20
-162.9189
  0
VERTEX
  8
LAYER_1
 10
347.711
 20
-163.1941
  0
VERTEX
  8
LAYER_1
 10
345.9206
 20
-163.8827
  0
VERTEX
  8
LAYER_1
 10
344.4054
 20
-165.1224
  0
VERTEX
  8
LAYER_1
 10
343.3044
 20
-166.6376
  0
VERTEX
  8
LAYER_1
 10
342.4775
 20
-168.2897
  0
VERTEX
  8
LAYER_1
 10
342.2026
 20
-170.2184
  0
VERTEX
  8
LAYER_1
 10
342.4775
 20
-172.1467
  0
VERTEX
  8
LAYER_1
 10
343.3044
 20
-173.9371
  0
VERTEX
  8
LAYER_1
 10
344.4054
 20
-175.452
  0
VERTEX
  8
LAYER_1
 10
345.9206
 20
-176.5541
  0
VERTEX
  8
LAYER_1
 10
347.711
 20
-177.2424
  0
VERTEX
  8
LAYER_1
 10
349.6397
 20
-177.5179
  0
VERTEX
  8
LAYER_1
 10
351.4304
 20
-177.2424
  0
VERTEX
  8
LAYER_1
 10
353.2208
 20
-176.5541
  0
VERTEX
  8
LAYER_1
 10
354.735
 20
-175.452
  0
VERTEX
  8
LAYER_1
 10
355.9747
 20
-173.9371
  0
VERTEX
  8
LAYER_1
 10
356.664
 20
-172.1467
  0
SEQEND
  0
ENDBLK
  0
BLOCK
  8
LAYER_1
  2
AIGNBL0101000C
 70
64
 10
0
 20
0
 30
0
  3
AIGNBL0101000C
  0
POLYLINE
  8
LAYER_1
 40
0.254
 41
0.254
 62
254
 66
1
 10
0
 20
0
 30
0
  0
VERTEX
  8
LAYER_1
 10
270.6422
 20
-45.4286
  0
VERTEX
  8
LAYER_1
 10
271.3312
 20
-45.0155
  0
VERTEX
  8
LAYER_1
 10
271.6064
 20
-44.3268
  0
SEQEND
  0
POLYLINE
  8
LAYER_1
 40
0.254
 41
0.254
 62
254
 66
1
 10
0
 20
0
 30
0
  0
VERTEX
  8
LAYER_1
 10
261.8275
 20
-44.3268
  0
VERTEX
  8
LAYER_1
 10
262.103
 20
-45.0155
  0
VERTEX
  8
LAYER_1
 10
262.9293
 20
-45.4286
  0
SEQEND
  0
ENDBLK
  0
BLOCK
  8
LAYER_1
  2
AIGNBL0101000D
 70
64
 10
0
 20
0
 30
0
  3
AIGNBL0101000D
  0
POLYLINE
  8
LAYER_1
 40
0.254
 41
0.254
 66
1
 10
0
 20
0
 30
0
  0
VERTEX
  8
LAYER_1
 10
260.4508
 20
-45.0156
  0
VERTEX
  8
LAYER_1
 10
260.7256
 20
-45.8418
  0
VERTEX
  8
LAYER_1
 10
261.2766
 20
-46.5304
  0
VERTEX
  8
LAYER_1
 10
262.2415
 20
-46.806
  0
VERTEX
  8
LAYER_1
 10
271.3314
 20
-46.806
  0
SEQEND
  0
POLYLINE
  8
LAYER_1
 40
0.254
 41
0.254
 66
1
 10
0
 20
0
 30
0
  0
VERTEX
  8
LAYER_1
 10
271.3314
 20
-46.806
  0
VERTEX
  8
LAYER_1
 10
272.1572
 20
-46.5304
  0
VERTEX
  8
LAYER_1
 10
272.8459
 20
-45.8418
  0
VERTEX
  8
LAYER_1
 10
273.1217
 20
-45.0156
  0
SEQEND
  0
ENDBLK
  0
BLOCK
  8
LAYER_1
  2
AIGNBL0101000E
 70
64
 10
0
 20
0
 30
0
  3
AIGNBL0101000E
  0
POLYLINE
  8
LAYER_1
 40
0.254
 41
0.254
 66
1
 10
0
 20
0
 30
0
  0
VERTEX
  8
LAYER_1
 10
260.4507
 20
-45.0155
  0
VERTEX
  8
LAYER_1
 10
260.4507
 20
-30.8296
  0
SEQEND
  0
POLYLINE
  8
LAYER_1
 40
0.254
 41
0.254
 66
1
 10
0
 20
0
 30
0
  0
VERTEX
  8
LAYER_1
 10
273.1217
 20
-45.0155
  0
VERTEX
  8
LAYER_1
 10
273.1217
 20
-30.8296
  0
SEQEND
  0
POLYLINE
  8
LAYER_1
 40
0.254
 41
0.254
 66
1
 10
0
 20
0
 30
0
  0
VERTEX
  8
LAYER_1
 10
271.193
 20
-44.3268
  0
VERTEX
  8
LAYER_1
 10
271.193
 20
-31.5182
  0
SEQEND
  0
POLYLINE
  8
LAYER_1
 40
0.254
 41
0.254
 66
1
 10
0
 20
0
 30
0
 70
1
  0
VERTEX
  8
LAYER_1
 10
272.2948
 20
-45.7041
  0
VERTEX
  8
LAYER_1
 10
272.2948
 20
-45.5665
  0
VERTEX
  8
LAYER_1
 10
272.0199
 20
-45.5665
  0
VERTEX
  8
LAYER_1
 10
271.8816
 20
-45.5665
  0
VERTEX
  8
LAYER_1
 10
271.8816
 20
-45.7041
  0
VERTEX
  8
LAYER_1
 10
271.8816
 20
-45.9796
  0
VERTEX
  8
LAYER_1
 10
272.0199
 20
-45.9796
  0
VERTEX
  8
LAYER_1
 10
272.2948
 20
-45.9796
  0
SEQEND
  0
POLYLINE
  8
LAYER_1
 40
0.254
 41
0.254
 66
1
 10
0
 20
0
 30
0
 70
1
  0
VERTEX
  8
LAYER_1
 10
261.6904
 20
-45.7041
  0
VERTEX
  8
LAYER_1
 10
261.5521
 20
-45.5665
  0
VERTEX
  8
LAYER_1
 10
261.4145
 20
-45.5665
  0
VERTEX
  8
LAYER_1
 10
261.2766
 20
-45.5665
  0
VERTEX
  8
LAYER_1
 10
261.1393
 20
-45.7041
  0
VERTEX
  8
LAYER_1
 10
261.2766
 20
-45.9796
  0
VERTEX
  8
LAYER_1
 10
261.4145
 20
-45.9796
  0
VERTEX
  8
LAYER_1
 10
261.5521
 20
-45.9796
  0
SEQEND
  0
ENDBLK
  0
BLOCK
  8
LAYER_1
  2
AIGNBL0101000F
 70
64
 10
0
 20
0
 30
0
  3
AIGNBL0101000F
  0
POLYLINE
  8
LAYER_1
 40
0.254
 41
0.254
 66
1
 10
0
 20
0
 30
0
  0
VERTEX
  8
LAYER_1
 10
260.4509
 20
-38.129
  0
VERTEX
  8
LAYER_1
 10
260.4509
 20
-40.3328
  0
SEQEND
  0
POLYLINE
  8
LAYER_1
 40
0.254
 41
0.254
 66
1
 10
0
 20
0
 30
0
  0
VERTEX
  8
LAYER_1
 10
273.1219
 20
-38.129
  0
VERTEX
  8
LAYER_1
 10
273.1219
 20
-38.8176
  0
SEQEND
  0
POLYLINE
  8
LAYER_1
 40
0.254
 41
0.254
 66
1
 10
0
 20
0
 30
0
  0
VERTEX
  8
LAYER_1
 10
265.6845
 20
-38.68
  0
VERTEX
  8
LAYER_1
 10
265.6845
 20
-40.746
  0
SEQEND
  0
POLYLINE
  8
LAYER_1
 40
0.254
 41
0.254
 66
1
 10
0
 20
0
 30
0
  0
VERTEX
  8
LAYER_1
 10
267.8883
 20
-40.746
  0
VERTEX
  8
LAYER_1
 10
267.8883
 20
-38.68
  0
SEQEND
  0
POLYLINE
  8
LAYER_1
 40
0.254
 41
0.254
 66
1
 10
0
 20
0
 30
0
  0
VERTEX
  8
LAYER_1
 10
270.6422
 20
-44.8778
  0
VERTEX
  8
LAYER_1
 10
262.9295
 20
-44.8778
  0
SEQEND
  0
ENDBLK
  0
BLOCK
  8
LAYER_1
  2
AIGNBL01010010
 70
64
 10
0
 20
0
 30
0
  3
AIGNBL01010010
  0
POLYLINE
  8
LAYER_1
 40
0.254
 41
0.254
 62
254
 66
1
 10
0
 20
0
 30
0
  0
VERTEX
  8
LAYER_1
 10
262.654
 20
-44.327
  0
VERTEX
  8
LAYER_1
 10
262.7923
 20
-44.4646
  0
VERTEX
  8
LAYER_1
 10
262.9295
 20
-44.4646
  0
SEQEND
  0
POLYLINE
  8
LAYER_1
 40
0.254
 41
0.254
 62
254
 66
1
 10
0
 20
0
 30
0
  0
VERTEX
  8
LAYER_1
 10
270.6422
 20
-44.4646
  0
VERTEX
  8
LAYER_1
 10
262.9295
 20
-44.4646
  0
SEQEND
  0
ENDBLK
  0
BLOCK
  8
LAYER_1
  2
AIGNBL01010011
 70
64
 10
0
 20
0
 30
0
  3
AIGNBL01010011
  0
POLYLINE
  8
LAYER_1
 40
0.254
 41
0.254
 66
1
 10
0
 20
0
 30
0
  0
VERTEX
  8
LAYER_1
 10
270.6421
 20
-44.8779
  0
VERTEX
  8
LAYER_1
 10
271.0552
 20
-44.7399
  0
VERTEX
  8
LAYER_1
 10
271.1931
 20
-44.3268
  0
SEQEND
  0
POLYLINE
  8
LAYER_1
 40
0.254
 41
0.254
 66
1
 10
0
 20
0
 30
0
 70
1
  0
VERTEX
  8
LAYER_1
 10
263.4809
 20
-42.3985
  0
VERTEX
  8
LAYER_1
 10
263.4809
 20
-42.2609
  0
VERTEX
  8
LAYER_1
 10
263.343
 20
-42.123
  0
VERTEX
  8
LAYER_1
 10
263.2047
 20
-42.2609
  0
VERTEX
  8
LAYER_1
 10
263.0671
 20
-42.3985
  0
VERTEX
  8
LAYER_1
 10
263.2047
 20
-42.5365
  0
VERTEX
  8
LAYER_1
 10
263.343
 20
-42.674
  0
VERTEX
  8
LAYER_1
 10
263.4809
 20
-42.5365
  0
SEQEND
  0
POLYLINE
  8
LAYER_1
 40
0.254
 41
0.254
 66
1
 10
0
 20
0
 30
0
  0
VERTEX
  8
LAYER_1
 10
262.3785
 20
-44.3268
  0
VERTEX
  8
LAYER_1
 10
262.516
 20
-44.7399
  0
VERTEX
  8
LAYER_1
 10
262.9295
 20
-44.8779
  0
SEQEND
  0
ENDBLK
  0
BLOCK
  8
LAYER_1
  2
AIGNBL01010012
 70
64
 10
0
 20
0
 30
0
  3
AIGNBL01010012
  0
POLYLINE
  8
LAYER_1
 40
0.254
 41
0.254
 66
1
 10
0
 20
0
 30
0
  0
VERTEX
  8
LAYER_1
 10
270.6421
 20
-30.967
  0
VERTEX
  8
LAYER_1
 10
262.9295
 20
-30.967
  0
SEQEND
  0
POLYLINE
  8
LAYER_1
 40
0.254
 41
0.254
 66
1
 10
0
 20
0
 30
0
  0
VERTEX
  8
LAYER_1
 10
262.2412
 20
-29.039
  0
VERTEX
  8
LAYER_1
 10
261.2767
 20
-29.3145
  0
VERTEX
  8
LAYER_1
 10
260.7257
 20
-30.0032
  0
VERTEX
  8
LAYER_1
 10
260.4508
 20
-30.8294
  0
SEQEND
  0
POLYLINE
  8
LAYER_1
 40
0.254
 41
0.254
 66
1
 10
0
 20
0
 30
0
  0
VERTEX
  8
LAYER_1
 10
273.1218
 20
-30.8294
  0
VERTEX
  8
LAYER_1
 10
272.846
 20
-30.0032
  0
VERTEX
  8
LAYER_1
 10
272.1573
 20
-29.3145
  0
VERTEX
  8
LAYER_1
 10
271.3314
 20
-29.039
  0
SEQEND
  0
POLYLINE
  8
LAYER_1
 40
0.254
 41
0.254
 66
1
 10
0
 20
0
 30
0
 70
1
  0
VERTEX
  8
LAYER_1
 10
270.3673
 20
-33.4463
  0
VERTEX
  8
LAYER_1
 10
270.3673
 20
-33.3084
  0
VERTEX
  8
LAYER_1
 10
270.2297
 20
-33.1708
  0
VERTEX
  8
LAYER_1
 10
270.0914
 20
-33.3084
  0
VERTEX
  8
LAYER_1
 10
269.9535
 20
-33.4463
  0
VERTEX
  8
LAYER_1
 10
270.0914
 20
-33.5839
  0
VERTEX
  8
LAYER_1
 10
270.2297
 20
-33.7219
  0
VERTEX
  8
LAYER_1
 10
270.3673
 20
-33.5839
  0
SEQEND
  0
POLYLINE
  8
LAYER_1
 40
0.254
 41
0.254
 66
1
 10
0
 20
0
 30
0
  0
VERTEX
  8
LAYER_1
 10
268.1631
 20
-33.8595
  0
VERTEX
  8
LAYER_1
 10
269.9535
 20
-33.8595
  0
SEQEND
  0
POLYLINE
  8
LAYER_1
 40
0.254
 41
0.254
 66
1
 10
0
 20
0
 30
0
  0
VERTEX
  8
LAYER_1
 10
269.2648
 20
-34.5481
  0
VERTEX
  8
LAYER_1
 10
269.2648
 20
-34.4105
  0
VERTEX
  8
LAYER_1
 10
268.8517
 20
-34.4105
  0
VERTEX
  8
LAYER_1
 10
268.8517
 20
-34.5481
  0
SEQEND
  0
POLYLINE
  8
LAYER_1
 40
0.254
 41
0.254
 66
1
 10
0
 20
0
 30
0
 70
1
  0
VERTEX
  8
LAYER_1
 10
268.3007
 20
-34.2726
  0
VERTEX
  8
LAYER_1
 10
268.1631
 20
-34.135
  0
VERTEX
  8
LAYER_1
 10
268.0259
 20
-34.135
  0
VERTEX
  8
LAYER_1
 10
267.8883
 20
-34.135
  0
VERTEX
  8
LAYER_1
 10
267.8883
 20
-34.2726
  0
VERTEX
  8
LAYER_1
 10
267.8883
 20
-34.4105
  0
VERTEX
  8
LAYER_1
 10
268.0259
 20
-34.4105
  0
VERTEX
  8
LAYER_1
 10
268.1631
 20
-34.4105
  0
VERTEX
  8
LAYER_1
 10
268.3007
 20
-34.2726
  0
VERTEX
  8
LAYER_1
 10
268.1631
 20
-34.135
  0
VERTEX
  8
LAYER_1
 10
268.0259
 20
-34.135
  0
VERTEX
  8
LAYER_1
 10
267.8883
 20
-34.2726
  0
VERTEX
  8
LAYER_1
 10
268.0259
 20
-34.4105
  0
VERTEX
  8
LAYER_1
 10
268.1631
 20
-34.4105
  0
VERTEX
  8
LAYER_1
 10
268.3007
 20
-34.2726
  0
VERTEX
  8
LAYER_1
 10
268.3007
 20
-33.9971
  0
VERTEX
  8
LAYER_1
 10
268.0259
 20
-33.9971
  0
VERTEX
  8
LAYER_1
 10
267.8883
 20
-33.9971
  0
VERTEX
  8
LAYER_1
 10
267.75
 20
-34.2726
  0
VERTEX
  8
LAYER_1
 10
267.8883
 20
-34.4105
  0
VERTEX
  8
LAYER_1
 10
268.0259
 20
-34.5481
  0
VERTEX
  8
LAYER_1
 10
268.3007
 20
-34.4105
  0
SEQEND
  0
POLYLINE
  8
LAYER_1
 40
0.254
 41
0.254
 66
1
 10
0
 20
0
 30
0
  0
VERTEX
  8
LAYER_1
 10
270.3673
 20
-34.2726
  0
VERTEX
  8
LAYER_1
 10
270.2297
 20
-33.9971
  0
VERTEX
  8
LAYER_1
 10
269.9535
 20
-33.8595
  0
SEQEND
  0
POLYLINE
  8
LAYER_1
 40
0.254
 41
0.254
 66
1
 10
0
 20
0
 30
0
  0
VERTEX
  8
LAYER_1
 10
268.1631
 20
-33.8595
  0
VERTEX
  8
LAYER_1
 10
267.8883
 20
-33.9971
  0
VERTEX
  8
LAYER_1
 10
267.75
 20
-34.2726
  0
SEQEND
  0
POLYLINE
  8
LAYER_1
 40
0.254
 41
0.254
 66
1
 10
0
 20
0
 30
0
 70
1
  0
VERTEX
  8
LAYER_1
 10
263.4809
 20
-33.4463
  0
VERTEX
  8
LAYER_1
 10
263.4809
 20
-33.3084
  0
VERTEX
  8
LAYER_1
 10
263.343
 20
-33.1708
  0
VERTEX
  8
LAYER_1
 10
263.2047
 20
-33.3084
  0
VERTEX
  8
LAYER_1
 10
263.0671
 20
-33.4463
  0
VERTEX
  8
LAYER_1
 10
263.2047
 20
-33.5839
  0
VERTEX
  8
LAYER_1
 10
263.343
 20
-33.7219
  0
VERTEX
  8
LAYER_1
 10
263.4809
 20
-33.5839
  0
SEQEND
  0
POLYLINE
  8
LAYER_1
 40
0.254
 41
0.254
 66
1
 10
0
 20
0
 30
0
  0
VERTEX
  8
LAYER_1
 10
263.6182
 20
-33.8595
  0
VERTEX
  8
LAYER_1
 10
265.4085
 20
-33.8595
  0
SEQEND
  0
POLYLINE
  8
LAYER_1
 40
0.254
 41
0.254
 66
1
 10
0
 20
0
 30
0
  0
VERTEX
  8
LAYER_1
 10
264.3068
 20
-34.5481
  0
VERTEX
  8
LAYER_1
 10
264.3068
 20
-34.4105
  0
VERTEX
  8
LAYER_1
 10
264.7199
 20
-34.4105
  0
SEQEND
  0
POLYLINE
  8
LAYER_1
 40
0.254
 41
0.254
 66
1
 10
0
 20
0
 30
0
  0
VERTEX
  8
LAYER_1
 10
264.7199
 20
-34.4105
  0
VERTEX
  8
LAYER_1
 10
264.7199
 20
-34.5481
  0
SEQEND
  0
POLYLINE
  8
LAYER_1
 40
0.254
 41
0.254
 66
1
 10
0
 20
0
 30
0
 70
1
  0
VERTEX
  8
LAYER_1
 10
263.7557
 20
-34.2726
  0
VERTEX
  8
LAYER_1
 10
263.6182
 20
-34.135
  0
VERTEX
  8
LAYER_1
 10
263.4809
 20
-34.135
  0
VERTEX
  8
LAYER_1
 10
263.343
 20
-34.135
  0
VERTEX
  8
LAYER_1
 10
263.343
 20
-34.2726
  0
VERTEX
  8
LAYER_1
 10
263.343
 20
-34.4105
  0
VERTEX
  8
LAYER_1
 10
263.4809
 20
-34.4105
  0
VERTEX
  8
LAYER_1
 10
263.6182
 20
-34.4105
  0
SEQEND
  0
POLYLINE
  8
LAYER_1
 40
0.254
 41
0.254
 66
1
 10
0
 20
0
 30
0
 70
1
  0
VERTEX
  8
LAYER_1
 10
263.6182
 20
-34.2726
  0
VERTEX
  8
LAYER_1
 10
263.6182
 20
-34.135
  0
VERTEX
  8
LAYER_1
 10
263.4809
 20
-34.135
  0
VERTEX
  8
LAYER_1
 10
263.343
 20
-34.135
  0
VERTEX
  8
LAYER_1
 10
263.343
 20
-34.2726
  0
VERTEX
  8
LAYER_1
 10
263.343
 20
-34.4105
  0
VERTEX
  8
LAYER_1
 10
263.4809
 20
-34.4105
  0
VERTEX
  8
LAYER_1
 10
263.6182
 20
-34.4105
  0
SEQEND
  0
POLYLINE
  8
LAYER_1
 40
0.254
 41
0.254
 66
1
 10
0
 20
0
 30
0
 70
1
  0
VERTEX
  8
LAYER_1
 10
263.7557
 20
-34.2726
  0
VERTEX
  8
LAYER_1
 10
263.7557
 20
-33.9971
  0
VERTEX
  8
LAYER_1
 10
263.4809
 20
-33.9971
  0
VERTEX
  8
LAYER_1
 10
263.343
 20
-33.9971
  0
VERTEX
  8
LAYER_1
 10
263.2047
 20
-34.2726
  0
VERTEX
  8
LAYER_1
 10
263.343
 20
-34.4105
  0
VERTEX
  8
LAYER_1
 10
263.4809
 20
-34.5481
  0
VERTEX
  8
LAYER_1
 10
263.7557
 20
-34.4105
  0
SEQEND
  0
POLYLINE
  8
LAYER_1
 40
0.254
 41
0.254
 66
1
 10
0
 20
0
 30
0
  0
VERTEX
  8
LAYER_1
 10
263.6182
 20
-33.8595
  0
VERTEX
  8
LAYER_1
 10
263.2047
 20
-33.9971
  0
VERTEX
  8
LAYER_1
 10
263.2047
 20
-34.2726
  0
SEQEND
  0
POLYLINE
  8
LAYER_1
 40
0.254
 41
0.254
 66
1
 10
0
 20
0
 30
0
  0
VERTEX
  8
LAYER_1
 10
265.8216
 20
-34.2726
  0
VERTEX
  8
LAYER_1
 10
265.6844
 20
-33.9971
  0
VERTEX
  8
LAYER_1
 10
265.4085
 20
-33.8595
  0
SEQEND
  0
POLYLINE
  8
LAYER_1
 40
0.254
 41
0.254
 66
1
 10
0
 20
0
 30
0
  0
VERTEX
  8
LAYER_1
 10
269.2648
 20
-36.614
  0
VERTEX
  8
LAYER_1
 10
268.8517
 20
-36.614
  0
VERTEX
  8
LAYER_1
 10
268.8517
 20
-36.3385
  0
SEQEND
  0
POLYLINE
  8
LAYER_1
 40
0.254
 41
0.254
 66
1
 10
0
 20
0
 30
0
 70
1
  0
VERTEX
  8
LAYER_1
 10
270.2297
 20
-36.7516
  0
VERTEX
  8
LAYER_1
 10
270.2297
 20
-36.614
  0
VERTEX
  8
LAYER_1
 10
270.0914
 20
-36.614
  0
VERTEX
  8
LAYER_1
 10
269.9535
 20
-36.614
  0
VERTEX
  8
LAYER_1
 10
269.8159
 20
-36.7516
  0
VERTEX
  8
LAYER_1
 10
269.9535
 20
-36.8895
  0
VERTEX
  8
LAYER_1
 10
270.0914
 20
-36.8895
  0
VERTEX
  8
LAYER_1
 10
270.2297
 20
-36.8895
  0
VERTEX
  8
LAYER_1
 10
270.2297
 20
-36.7516
  0
VERTEX
  8
LAYER_1
 10
270.2297
 20
-36.614
  0
VERTEX
  8
LAYER_1
 10
270.0914
 20
-36.614
  0
VERTEX
  8
LAYER_1
 10
269.9535
 20
-36.614
  0
VERTEX
  8
LAYER_1
 10
269.8159
 20
-36.7516
  0
VERTEX
  8
LAYER_1
 10
269.9535
 20
-36.8895
  0
VERTEX
  8
LAYER_1
 10
270.0914
 20
-36.8895
  0
VERTEX
  8
LAYER_1
 10
270.2297
 20
-36.8895
  0
SEQEND
  0
POLYLINE
  8
LAYER_1
 40
0.254
 41
0.254
 66
1
 10
0
 20
0
 30
0
 70
1
  0
VERTEX
  8
LAYER_1
 10
270.3673
 20
-36.7516
  0
VERTEX
  8
LAYER_1
 10
270.2297
 20
-36.4764
  0
VERTEX
  8
LAYER_1
 10
270.0914
 20
-36.4764
  0
VERTEX
  8
LAYER_1
 10
269.8159
 20
-36.4764
  0
VERTEX
  8
LAYER_1
 10
269.8159
 20
-36.7516
  0
VERTEX
  8
LAYER_1
 10
269.8159
 20
-36.8895
  0
VERTEX
  8
LAYER_1
 10
270.0914
 20
-37.0271
  0
VERTEX
  8
LAYER_1
 10
270.2297
 20
-36.8895
  0
SEQEND
  0
POLYLINE
  8
LAYER_1
 40
0.254
 41
0.254
 66
1
 10
0
 20
0
 30
0
  0
VERTEX
  8
LAYER_1
 10
269.9535
 20
-37.1651
  0
VERTEX
  8
LAYER_1
 10
268.1631
 20
-37.1651
  0
SEQEND
  0
POLYLINE
  8
LAYER_1
 40
0.254
 41
0.254
 66
1
 10
0
 20
0
 30
0
  0
VERTEX
  8
LAYER_1
 10
269.2648
 20
-36.614
  0
VERTEX
  8
LAYER_1
 10
269.2648
 20
-36.3385
  0
SEQEND
  0
POLYLINE
  8
LAYER_1
 40
0.254
 41
0.254
 66
1
 10
0
 20
0
 30
0
 70
1
  0
VERTEX
  8
LAYER_1
 10
272.5708
 20
-37.8537
  0
VERTEX
  8
LAYER_1
 10
272.5708
 20
-37.7158
  0
VERTEX
  8
LAYER_1
 10
272.4325
 20
-37.7158
  0
VERTEX
  8
LAYER_1
 10
272.1573
 20
-37.7158
  0
VERTEX
  8
LAYER_1
 10
272.1573
 20
-37.8537
  0
VERTEX
  8
LAYER_1
 10
272.1573
 20
-38.1292
  0
VERTEX
  8
LAYER_1
 10
272.4325
 20
-38.1292
  0
VERTEX
  8
LAYER_1
 10
272.5708
 20
-38.1292
  0
SEQEND
  0
POLYLINE
  8
LAYER_1
 40
0.254
 41
0.254
 66
1
 10
0
 20
0
 30
0
  0
VERTEX
  8
LAYER_1
 10
267.8883
 20
-38.6799
  0
VERTEX
  8
LAYER_1
 10
267.75
 20
-38.4044
  0
VERTEX
  8
LAYER_1
 10
267.612
 20
-38.4044
  0
SEQEND
  0
POLYLINE
  8
LAYER_1
 40
0.254
 41
0.254
 66
1
 10
0
 20
0
 30
0
 70
1
  0
VERTEX
  8
LAYER_1
 10
267.75
 20
-37.9913
  0
VERTEX
  8
LAYER_1
 10
267.612
 20
-37.8537
  0
VERTEX
  8
LAYER_1
 10
267.4752
 20
-37.7158
  0
VERTEX
  8
LAYER_1
 10
267.1989
 20
-37.8537
  0
VERTEX
  8
LAYER_1
 10
267.1989
 20
-37.9913
  0
VERTEX
  8
LAYER_1
 10
267.1989
 20
-38.2668
  0
VERTEX
  8
LAYER_1
 10
267.4752
 20
-38.2668
  0
VERTEX
  8
LAYER_1
 10
267.612
 20
-38.2668
  0
SEQEND
  0
POLYLINE
  8
LAYER_1
 40
0.254
 41
0.254
 66
1
 10
0
 20
0
 30
0
 70
1
  0
VERTEX
  8
LAYER_1
 10
267.612
 20
-37.9913
  0
VERTEX
  8
LAYER_1
 10
267.612
 20
-37.8537
  0
VERTEX
  8
LAYER_1
 10
267.4752
 20
-37.8537
  0
VERTEX
  8
LAYER_1
 10
267.3372
 20
-37.8537
  0
VERTEX
  8
LAYER_1
 10
267.3372
 20
-37.9913
  0
VERTEX
  8
LAYER_1
 10
267.3372
 20
-38.1292
  0
VERTEX
  8
LAYER_1
 10
267.4752
 20
-38.1292
  0
VERTEX
  8
LAYER_1
 10
267.612
 20
-38.1292
  0
SEQEND
  0
POLYLINE
  8
LAYER_1
 40
0.254
 41
0.254
 66
1
 10
0
 20
0
 30
0
  0
VERTEX
  8
LAYER_1
 10
267.75
 20
-36.7516
  0
VERTEX
  8
LAYER_1
 10
267.8883
 20
-37.0271
  0
VERTEX
  8
LAYER_1
 10
268.1631
 20
-37.1651
  0
SEQEND
  0
POLYLINE
  8
LAYER_1
 40
0.254
 41
0.254
 66
1
 10
0
 20
0
 30
0
  0
VERTEX
  8
LAYER_1
 10
269.9535
 20
-37.1651
  0
VERTEX
  8
LAYER_1
 10
270.2297
 20
-37.0271
  0
VERTEX
  8
LAYER_1
 10
270.3673
 20
-36.7516
  0
SEQEND
  0
POLYLINE
  8
LAYER_1
 40
0.254
 41
0.254
 66
1
 10
0
 20
0
 30
0
 70
1
  0
VERTEX
  8
LAYER_1
 10
265.8216
 20
-36.7516
  0
VERTEX
  8
LAYER_1
 10
265.6844
 20
-36.4764
  0
VERTEX
  8
LAYER_1
 10
265.5461
 20
-36.4764
  0
VERTEX
  8
LAYER_1
 10
265.2706
 20
-36.4764
  0
VERTEX
  8
LAYER_1
 10
265.1337
 20
-36.7516
  0
VERTEX
  8
LAYER_1
 10
265.2706
 20
-36.8895
  0
VERTEX
  8
LAYER_1
 10
265.5461
 20
-37.0271
  0
VERTEX
  8
LAYER_1
 10
265.6844
 20
-36.8895
  0
SEQEND
  0
POLYLINE
  8
LAYER_1
 40
0.254
 41
0.254
 66
1
 10
0
 20
0
 30
0
  0
VERTEX
  8
LAYER_1
 10
264.3068
 20
-36.3385
  0
VERTEX
  8
LAYER_1
 10
264.3068
 20
-36.614
  0
VERTEX
  8
LAYER_1
 10
264.7199
 20
-36.614
  0
SEQEND
  0
POLYLINE
  8
LAYER_1
 40
0.254
 41
0.254
 66
1
 10
0
 20
0
 30
0
  0
VERTEX
  8
LAYER_1
 10
264.7199
 20
-36.614
  0
VERTEX
  8
LAYER_1
 10
264.7199
 20
-36.3385
  0
SEQEND
  0
POLYLINE
  8
LAYER_1
 40
0.254
 41
0.254
 66
1
 10
0
 20
0
 30
0
 70
1
  0
VERTEX
  8
LAYER_1
 10
265.6844
 20
-36.7516
  0
VERTEX
  8
LAYER_1
 10
265.5461
 20
-36.614
  0
VERTEX
  8
LAYER_1
 10
265.4085
 20
-36.614
  0
VERTEX
  8
LAYER_1
 10
265.2706
 20
-36.7516
  0
VERTEX
  8
LAYER_1
 10
265.4085
 20
-36.8895
  0
VERTEX
  8
LAYER_1
 10
265.5461
 20
-36.8895
  0
VERTEX
  8
LAYER_1
 10
265.6844
 20
-36.7516
  0
VERTEX
  8
LAYER_1
 10
265.5461
 20
-36.614
  0
VERTEX
  8
LAYER_1
 10
265.4085
 20
-36.614
  0
VERTEX
  8
LAYER_1
 10
265.2706
 20
-36.7516
  0
VERTEX
  8
LAYER_1
 10
265.4085
 20
-36.8895
  0
VERTEX
  8
LAYER_1
 10
265.5461
 20
-36.8895
  0
SEQEND
  0
POLYLINE
  8
LAYER_1
 40
0.254
 41
0.254
 66
1
 10
0
 20
0
 30
0
  0
VERTEX
  8
LAYER_1
 10
265.4085
 20
-37.1651
  0
VERTEX
  8
LAYER_1
 10
263.6182
 20
-37.1651
  0
SEQEND
  0
POLYLINE
  8
LAYER_1
 40
0.254
 41
0.254
 66
1
 10
0
 20
0
 30
0
  0
VERTEX
  8
LAYER_1
 10
265.9592
 20
-38.4044
  0
VERTEX
  8
LAYER_1
 10
265.6844
 20
-38.4044
  0
VERTEX
  8
LAYER_1
 10
265.6844
 20
-38.6799
  0
SEQEND
  0
POLYLINE
  8
LAYER_1
 40
0.254
 41
0.254
 66
1
 10
0
 20
0
 30
0
 70
1
  0
VERTEX
  8
LAYER_1
 10
261.4143
 20
-37.8537
  0
VERTEX
  8
LAYER_1
 10
261.2767
 20
-37.7158
  0
VERTEX
  8
LAYER_1
 10
261.1395
 20
-37.7158
  0
VERTEX
  8
LAYER_1
 10
261.0019
 20
-37.7158
  0
VERTEX
  8
LAYER_1
 10
260.8636
 20
-37.8537
  0
VERTEX
  8
LAYER_1
 10
261.0019
 20
-38.1292
  0
VERTEX
  8
LAYER_1
 10
261.1395
 20
-38.1292
  0
VERTEX
  8
LAYER_1
 10
261.2767
 20
-38.1292
  0
SEQEND
  0
POLYLINE
  8
LAYER_1
 40
0.254
 41
0.254
 66
1
 10
0
 20
0
 30
0
  0
VERTEX
  8
LAYER_1
 10
263.2047
 20
-36.7516
  0
VERTEX
  8
LAYER_1
 10
263.2047
 20
-37.0271
  0
VERTEX
  8
LAYER_1
 10
263.6182
 20
-37.1651
  0
SEQEND
  0
POLYLINE
  8
LAYER_1
 40
0.254
 41
0.254
 66
1
 10
0
 20
0
 30
0
  0
VERTEX
  8
LAYER_1
 10
265.4085
 20
-37.1651
  0
VERTEX
  8
LAYER_1
 10
265.6844
 20
-37.0271
  0
VERTEX
  8
LAYER_1
 10
265.8216
 20
-36.7516
  0
SEQEND
  0
POLYLINE
  8
LAYER_1
 40
0.254
 41
0.254
 66
1
 10
0
 20
0
 30
0
 70
1
  0
VERTEX
  8
LAYER_1
 10
266.3727
 20
-37.9913
  0
VERTEX
  8
LAYER_1
 10
266.2355
 20
-37.8537
  0
VERTEX
  8
LAYER_1
 10
266.0972
 20
-37.7158
  0
VERTEX
  8
LAYER_1
 10
265.8216
 20
-37.8537
  0
VERTEX
  8
LAYER_1
 10
265.8216
 20
-37.9913
  0
VERTEX
  8
LAYER_1
 10
265.8216
 20
-38.2668
  0
VERTEX
  8
LAYER_1
 10
266.0972
 20
-38.2668
  0
VERTEX
  8
LAYER_1
 10
266.2355
 20
-38.2668
  0
SEQEND
  0
POLYLINE
  8
LAYER_1
 40
0.254
 41
0.254
 66
1
 10
0
 20
0
 30
0
 70
1
  0
VERTEX
  8
LAYER_1
 10
266.2355
 20
-37.9913
  0
VERTEX
  8
LAYER_1
 10
266.2355
 20
-37.8537
  0
VERTEX
  8
LAYER_1
 10
266.0972
 20
-37.8537
  0
VERTEX
  8
LAYER_1
 10
265.9592
 20
-37.8537
  0
VERTEX
  8
LAYER_1
 10
265.8216
 20
-37.9913
  0
VERTEX
  8
LAYER_1
 10
265.9592
 20
-38.1292
  0
VERTEX
  8
LAYER_1
 10
266.0972
 20
-38.1292
  0
VERTEX
  8
LAYER_1
 10
266.2355
 20
-38.1292
  0
SEQEND
  0
POLYLINE
  8
LAYER_1
 40
0.254
 41
0.254
 66
1
 10
0
 20
0
 30
0
  0
VERTEX
  8
LAYER_1
 10
267.612
 20
-38.4044
  0
VERTEX
  8
LAYER_1
 10
265.9592
 20
-38.4044
  0
SEQEND
  0
POLYLINE
  8
LAYER_1
 40
0.254
 41
0.254
 66
1
 10
0
 20
0
 30
0
 70
1
  0
VERTEX
  8
LAYER_1
 10
264.9954
 20
-35.5122
  0
VERTEX
  8
LAYER_1
 10
264.8575
 20
-35.2367
  0
VERTEX
  8
LAYER_1
 10
264.4451
 20
-34.9612
  0
VERTEX
  8
LAYER_1
 10
264.1689
 20
-35.2367
  0
VERTEX
  8
LAYER_1
 10
264.0316
 20
-35.5122
  0
VERTEX
  8
LAYER_1
 10
264.1689
 20
-35.7878
  0
VERTEX
  8
LAYER_1
 10
264.4451
 20
-35.9254
  0
VERTEX
  8
LAYER_1
 10
264.8575
 20
-35.7878
  0
SEQEND
  0
POLYLINE
  8
LAYER_1
 40
0.254
 41
0.254
 66
1
 10
0
 20
0
 30
0
 70
1
  0
VERTEX
  8
LAYER_1
 10
265.2706
 20
-35.5122
  0
VERTEX
  8
LAYER_1
 10
264.9954
 20
-34.9612
  0
VERTEX
  8
LAYER_1
 10
264.4451
 20
-34.6857
  0
VERTEX
  8
LAYER_1
 10
264.0316
 20
-34.9612
  0
VERTEX
  8
LAYER_1
 10
263.7557
 20
-35.5122
  0
VERTEX
  8
LAYER_1
 10
264.0316
 20
-36.063
  0
VERTEX
  8
LAYER_1
 10
264.4451
 20
-36.2009
  0
VERTEX
  8
LAYER_1
 10
264.9954
 20
-36.063
  0
SEQEND
  0
POLYLINE
  8
LAYER_1
 40
0.254
 41
0.254
 66
1
 10
0
 20
0
 30
0
 70
1
  0
VERTEX
  8
LAYER_1
 10
264.9954
 20
-35.5122
  0
VERTEX
  8
LAYER_1
 10
264.8575
 20
-35.0991
  0
VERTEX
  8
LAYER_1
 10
264.4451
 20
-34.9612
  0
VERTEX
  8
LAYER_1
 10
264.1689
 20
-35.0991
  0
VERTEX
  8
LAYER_1
 10
264.0316
 20
-35.5122
  0
VERTEX
  8
LAYER_1
 10
264.1689
 20
-35.9254
  0
VERTEX
  8
LAYER_1
 10
264.4451
 20
-36.063
  0
VERTEX
  8
LAYER_1
 10
264.8575
 20
-35.9254
  0
SEQEND
  0
POLYLINE
  8
LAYER_1
 40
0.254
 41
0.254
 66
1
 10
0
 20
0
 30
0
 70
1
  0
VERTEX
  8
LAYER_1
 10
265.6844
 20
-35.5122
  0
VERTEX
  8
LAYER_1
 10
265.5461
 20
-34.9612
  0
VERTEX
  8
LAYER_1
 10
265.1337
 20
-34.4105
  0
VERTEX
  8
LAYER_1
 10
264.4451
 20
-34.2726
  0
VERTEX
  8
LAYER_1
 10
263.894
 20
-34.4105
  0
VERTEX
  8
LAYER_1
 10
263.4809
 20
-34.9612
  0
VERTEX
  8
LAYER_1
 10
263.343
 20
-35.5122
  0
VERTEX
  8
LAYER_1
 10
263.4809
 20
-36.063
  0
VERTEX
  8
LAYER_1
 10
263.894
 20
-36.614
  0
VERTEX
  8
LAYER_1
 10
264.4451
 20
-36.7516
  0
VERTEX
  8
LAYER_1
 10
265.1337
 20
-36.614
  0
VERTEX
  8
LAYER_1
 10
265.5461
 20
-36.063
  0
SEQEND
  0
POLYLINE
  8
LAYER_1
 40
0.254
 41
0.254
 66
1
 10
0
 20
0
 30
0
  0
VERTEX
  8
LAYER_1
 10
264.3068
 20
-34.5481
  0
VERTEX
  8
LAYER_1
 10
263.6182
 20
-35.0991
  0
VERTEX
  8
LAYER_1
 10
263.6182
 20
-35.9254
  0
VERTEX
  8
LAYER_1
 10
264.3068
 20
-36.3385
  0
SEQEND
  0
POLYLINE
  8
LAYER_1
 40
0.254
 41
0.254
 66
1
 10
0
 20
0
 30
0
  0
VERTEX
  8
LAYER_1
 10
265.8216
 20
-36.7516
  0
VERTEX
  8
LAYER_1
 10
265.8216
 20
-34.2726
  0
SEQEND
  0
POLYLINE
  8
LAYER_1
 40
0.254
 41
0.254
 66
1
 10
0
 20
0
 30
0
  0
VERTEX
  8
LAYER_1
 10
263.2047
 20
-34.2726
  0
VERTEX
  8
LAYER_1
 10
263.2047
 20
-36.7516
  0
SEQEND
  0
POLYLINE
  8
LAYER_1
 40
0.254
 41
0.254
 66
1
 10
0
 20
0
 30
0
  0
VERTEX
  8
LAYER_1
 10
264.7199
 20
-36.3385
  0
VERTEX
  8
LAYER_1
 10
265.2706
 20
-35.9254
  0
VERTEX
  8
LAYER_1
 10
265.2706
 20
-35.0991
  0
VERTEX
  8
LAYER_1
 10
264.7199
 20
-34.5481
  0
SEQEND
  0
POLYLINE
  8
LAYER_1
 40
0.254
 41
0.254
 66
1
 10
0
 20
0
 30
0
 70
1
  0
VERTEX
  8
LAYER_1
 10
270.2297
 20
-35.5122
  0
VERTEX
  8
LAYER_1
 10
270.0914
 20
-34.9612
  0
VERTEX
  8
LAYER_1
 10
269.6787
 20
-34.4105
  0
VERTEX
  8
LAYER_1
 10
269.1276
 20
-34.2726
  0
VERTEX
  8
LAYER_1
 10
268.4386
 20
-34.4105
  0
VERTEX
  8
LAYER_1
 10
268.0259
 20
-34.9612
  0
VERTEX
  8
LAYER_1
 10
267.8883
 20
-35.5122
  0
VERTEX
  8
LAYER_1
 10
268.0259
 20
-36.063
  0
VERTEX
  8
LAYER_1
 10
268.4386
 20
-36.614
  0
VERTEX
  8
LAYER_1
 10
269.1276
 20
-36.7516
  0
VERTEX
  8
LAYER_1
 10
269.6787
 20
-36.614
  0
VERTEX
  8
LAYER_1
 10
270.0914
 20
-36.063
  0
SEQEND
  0
POLYLINE
  8
LAYER_1
 40
0.254
 41
0.254
 66
1
 10
0
 20
0
 30
0
 70
1
  0
VERTEX
  8
LAYER_1
 10
269.5404
 20
-35.5122
  0
VERTEX
  8
LAYER_1
 10
269.4028
 20
-35.0991
  0
VERTEX
  8
LAYER_1
 10
269.1276
 20
-34.9612
  0
VERTEX
  8
LAYER_1
 10
268.7138
 20
-35.0991
  0
VERTEX
  8
LAYER_1
 10
268.5769
 20
-35.5122
  0
VERTEX
  8
LAYER_1
 10
268.7138
 20
-35.9254
  0
VERTEX
  8
LAYER_1
 10
269.1276
 20
-36.063
  0
VERTEX
  8
LAYER_1
 10
269.4028
 20
-35.9254
  0
SEQEND
  0
POLYLINE
  8
LAYER_1
 40
0.254
 41
0.254
 66
1
 10
0
 20
0
 30
0
 70
1
  0
VERTEX
  8
LAYER_1
 10
269.8159
 20
-35.5122
  0
VERTEX
  8
LAYER_1
 10
269.5404
 20
-34.9612
  0
VERTEX
  8
LAYER_1
 10
269.1276
 20
-34.6857
  0
VERTEX
  8
LAYER_1
 10
268.5769
 20
-34.9612
  0
VERTEX
  8
LAYER_1
 10
268.3007
 20
-35.5122
  0
VERTEX
  8
LAYER_1
 10
268.5769
 20
-36.063
  0
VERTEX
  8
LAYER_1
 10
269.1276
 20
-36.2009
  0
VERTEX
  8
LAYER_1
 10
269.5404
 20
-36.063
  0
SEQEND
  0
POLYLINE
  8
LAYER_1
 40
0.254
 41
0.254
 66
1
 10
0
 20
0
 30
0
 70
1
  0
VERTEX
  8
LAYER_1
 10
269.5404
 20
-35.5122
  0
VERTEX
  8
LAYER_1
 10
269.4028
 20
-35.2367
  0
VERTEX
  8
LAYER_1
 10
269.1276
 20
-34.9612
  0
VERTEX
  8
LAYER_1
 10
268.7138
 20
-35.2367
  0
VERTEX
  8
LAYER_1
 10
268.5769
 20
-35.5122
  0
VERTEX
  8
LAYER_1
 10
268.7138
 20
-35.7878
  0
VERTEX
  8
LAYER_1
 10
269.1276
 20
-35.9254
  0
VERTEX
  8
LAYER_1
 10
269.4028
 20
-35.7878
  0
SEQEND
  0
POLYLINE
  8
LAYER_1
 40
0.254
 41
0.254
 66
1
 10
0
 20
0
 30
0
  0
VERTEX
  8
LAYER_1
 10
267.75
 20
-34.2726
  0
VERTEX
  8
LAYER_1
 10
267.75
 20
-36.7516
  0
SEQEND
  0
POLYLINE
  8
LAYER_1
 40
0.254
 41
0.254
 66
1
 10
0
 20
0
 30
0
  0
VERTEX
  8
LAYER_1
 10
268.8517
 20
-34.5481
  0
VERTEX
  8
LAYER_1
 10
268.1631
 20
-35.0991
  0
VERTEX
  8
LAYER_1
 10
268.1631
 20
-35.9254
  0
VERTEX
  8
LAYER_1
 10
268.8517
 20
-36.3385
  0
SEQEND
  0
POLYLINE
  8
LAYER_1
 40
0.254
 41
0.254
 66
1
 10
0
 20
0
 30
0
  0
VERTEX
  8
LAYER_1
 10
270.3673
 20
-36.7516
  0
VERTEX
  8
LAYER_1
 10
270.3673
 20
-34.2726
  0
SEQEND
  0
POLYLINE
  8
LAYER_1
 40
0.254
 41
0.254
 66
1
 10
0
 20
0
 30
0
  0
VERTEX
  8
LAYER_1
 10
269.2648
 20
-36.3385
  0
VERTEX
  8
LAYER_1
 10
269.9535
 20
-35.9254
  0
VERTEX
  8
LAYER_1
 10
269.9535
 20
-35.0991
  0
VERTEX
  8
LAYER_1
 10
269.2648
 20
-34.5481
  0
SEQEND
  0
POLYLINE
  8
LAYER_1
 40
0.254
 41
0.254
 66
1
 10
0
 20
0
 30
0
  0
VERTEX
  8
LAYER_1
 10
267.3372
 20
-38.9554
  0
VERTEX
  8
LAYER_1
 10
267.1989
 20
-38.8175
  0
VERTEX
  8
LAYER_1
 10
266.2355
 20
-38.8175
  0
VERTEX
  8
LAYER_1
 10
266.2355
 20
-38.9554
  0
SEQEND
  0
POLYLINE
  8
LAYER_1
 40
0.254
 41
0.254
 66
1
 10
0
 20
0
 30
0
  0
VERTEX
  8
LAYER_1
 10
267.3372
 20
-40.0572
  0
VERTEX
  8
LAYER_1
 10
266.2355
 20
-40.0572
  0
VERTEX
  8
LAYER_1
 10
266.2355
 20
-40.3327
  0
SEQEND
  0
POLYLINE
  8
LAYER_1
 40
0.254
 41
0.254
 66
1
 10
0
 20
0
 30
0
  0
VERTEX
  8
LAYER_1
 10
267.3372
 20
-40.3327
  0
VERTEX
  8
LAYER_1
 10
266.2355
 20
-40.3327
  0
SEQEND
  0
POLYLINE
  8
LAYER_1
 40
0.254
 41
0.254
 66
1
 10
0
 20
0
 30
0
  0
VERTEX
  8
LAYER_1
 10
266.2355
 20
-40.3327
  0
VERTEX
  8
LAYER_1
 10
267.3372
 20
-40.3327
  0
VERTEX
  8
LAYER_1
 10
267.3372
 20
-40.0572
  0
SEQEND
  0
POLYLINE
  8
LAYER_1
 40
0.254
 41
0.254
 66
1
 10
0
 20
0
 30
0
  0
VERTEX
  8
LAYER_1
 10
267.3372
 20
-40.1948
  0
VERTEX
  8
LAYER_1
 10
266.2355
 20
-40.1948
  0
SEQEND
  0
POLYLINE
  8
LAYER_1
 40
0.254
 41
0.254
 66
1
 10
0
 20
0
 30
0
  0
VERTEX
  8
LAYER_1
 10
267.3372
 20
-40.3327
  0
VERTEX
  8
LAYER_1
 10
266.2355
 20
-40.3327
  0
SEQEND
  0
POLYLINE
  8
LAYER_1
 40
0.254
 41
0.254
 66
1
 10
0
 20
0
 30
0
  0
VERTEX
  8
LAYER_1
 10
267.3372
 20
-40.0572
  0
VERTEX
  8
LAYER_1
 10
266.2355
 20
-40.0572
  0
SEQEND
  0
POLYLINE
  8
LAYER_1
 40
0.254
 41
0.254
 66
1
 10
0
 20
0
 30
0
  0
VERTEX
  8
LAYER_1
 10
267.3372
 20
-40.1948
  0
VERTEX
  8
LAYER_1
 10
266.2355
 20
-40.1948
  0
VERTEX
  8
LAYER_1
 10
267.0614
 20
-40.1948
  0
SEQEND
  0
POLYLINE
  8
LAYER_1
 40
0.254
 41
0.254
 66
1
 10
0
 20
0
 30
0
  0
VERTEX
  8
LAYER_1
 10
267.612
 20
-41.0214
  0
VERTEX
  8
LAYER_1
 10
267.75
 20
-41.0214
  0
VERTEX
  8
LAYER_1
 10
267.8883
 20
-40.7458
  0
SEQEND
  0
POLYLINE
  8
LAYER_1
 40
0.254
 41
0.254
 66
1
 10
0
 20
0
 30
0
  0
VERTEX
  8
LAYER_1
 10
266.2355
 20
-40.4703
  0
VERTEX
  8
LAYER_1
 10
267.1989
 20
-40.4703
  0
VERTEX
  8
LAYER_1
 10
267.3372
 20
-40.4703
  0
SEQEND
  0
POLYLINE
  8
LAYER_1
 40
0.254
 41
0.254
 66
1
 10
0
 20
0
 30
0
 70
1
  0
VERTEX
  8
LAYER_1
 10
267.612
 20
-41.4345
  0
VERTEX
  8
LAYER_1
 10
267.612
 20
-41.2969
  0
VERTEX
  8
LAYER_1
 10
267.4752
 20
-41.1589
  0
VERTEX
  8
LAYER_1
 10
267.3372
 20
-41.2969
  0
VERTEX
  8
LAYER_1
 10
267.3372
 20
-41.4345
  0
VERTEX
  8
LAYER_1
 10
267.3372
 20
-41.5724
  0
VERTEX
  8
LAYER_1
 10
267.4752
 20
-41.5724
  0
VERTEX
  8
LAYER_1
 10
267.612
 20
-41.5724
  0
SEQEND
  0
POLYLINE
  8
LAYER_1
 40
0.254
 41
0.254
 66
1
 10
0
 20
0
 30
0
 70
1
  0
VERTEX
  8
LAYER_1
 10
267.75
 20
-41.4345
  0
VERTEX
  8
LAYER_1
 10
267.612
 20
-41.1589
  0
VERTEX
  8
LAYER_1
 10
267.4752
 20
-41.1589
  0
VERTEX
  8
LAYER_1
 10
267.1989
 20
-41.1589
  0
VERTEX
  8
LAYER_1
 10
267.1989
 20
-41.4345
  0
VERTEX
  8
LAYER_1
 10
267.1989
 20
-41.5724
  0
VERTEX
  8
LAYER_1
 10
267.4752
 20
-41.71
  0
VERTEX
  8
LAYER_1
 10
267.612
 20
-41.5724
  0
SEQEND
  0
POLYLINE
  8
LAYER_1
 40
0.254
 41
0.254
 66
1
 10
0
 20
0
 30
0
  0
VERTEX
  8
LAYER_1
 10
266.2355
 20
-38.9554
  0
VERTEX
  8
LAYER_1
 10
266.2355
 20
-40.4703
  0
SEQEND
  0
POLYLINE
  8
LAYER_1
 40
0.254
 41
0.254
 66
1
 10
0
 20
0
 30
0
  0
VERTEX
  8
LAYER_1
 10
267.3372
 20
-40.4703
  0
VERTEX
  8
LAYER_1
 10
267.3372
 20
-38.9554
  0
SEQEND
  0
POLYLINE
  8
LAYER_1
 40
0.254
 41
0.254
 66
1
 10
0
 20
0
 30
0
  0
VERTEX
  8
LAYER_1
 10
265.6844
 20
-40.7458
  0
VERTEX
  8
LAYER_1
 10
265.6844
 20
-41.0214
  0
VERTEX
  8
LAYER_1
 10
265.9592
 20
-41.0214
  0
SEQEND
  0
POLYLINE
  8
LAYER_1
 40
0.254
 41
0.254
 66
1
 10
0
 20
0
 30
0
  0
VERTEX
  8
LAYER_1
 10
265.9592
 20
-41.0214
  0
VERTEX
  8
LAYER_1
 10
267.612
 20
-41.0214
  0
SEQEND
  0
POLYLINE
  8
LAYER_1
 40
0.254
 41
0.254
 66
1
 10
0
 20
0
 30
0
 70
1
  0
VERTEX
  8
LAYER_1
 10
266.3727
 20
-41.4345
  0
VERTEX
  8
LAYER_1
 10
266.2355
 20
-41.1589
  0
VERTEX
  8
LAYER_1
 10
266.0972
 20
-41.1589
  0
VERTEX
  8
LAYER_1
 10
265.8216
 20
-41.1589
  0
VERTEX
  8
LAYER_1
 10
265.8216
 20
-41.4345
  0
VERTEX
  8
LAYER_1
 10
265.8216
 20
-41.5724
  0
VERTEX
  8
LAYER_1
 10
266.0972
 20
-41.71
  0
VERTEX
  8
LAYER_1
 10
266.2355
 20
-41.5724
  0
SEQEND
  0
POLYLINE
  8
LAYER_1
 40
0.254
 41
0.254
 66
1
 10
0
 20
0
 30
0
 70
1
  0
VERTEX
  8
LAYER_1
 10
266.2355
 20
-41.4345
  0
VERTEX
  8
LAYER_1
 10
266.2355
 20
-41.2969
  0
VERTEX
  8
LAYER_1
 10
266.0972
 20
-41.1589
  0
VERTEX
  8
LAYER_1
 10
265.9592
 20
-41.2969
  0
VERTEX
  8
LAYER_1
 10
265.8216
 20
-41.4345
  0
VERTEX
  8
LAYER_1
 10
265.9592
 20
-41.5724
  0
VERTEX
  8
LAYER_1
 10
266.0972
 20
-41.5724
  0
VERTEX
  8
LAYER_1
 10
266.2355
 20
-41.5724
  0
SEQEND
  0
POLYLINE
  8
LAYER_1
 40
0.254
 41
0.254
 66
1
 10
0
 20
0
 30
0
 70
1
  0
VERTEX
  8
LAYER_1
 10
270.3673
 20
-42.3986
  0
VERTEX
  8
LAYER_1
 10
270.3673
 20
-42.2607
  0
VERTEX
  8
LAYER_1
 10
270.2297
 20
-42.1231
  0
VERTEX
  8
LAYER_1
 10
270.0914
 20
-42.2607
  0
VERTEX
  8
LAYER_1
 10
269.9535
 20
-42.3986
  0
VERTEX
  8
LAYER_1
 10
270.0914
 20
-42.5362
  0
VERTEX
  8
LAYER_1
 10
270.2297
 20
-42.6742
  0
VERTEX
  8
LAYER_1
 10
270.3673
 20
-42.5362
  0
SEQEND
  0
ENDBLK
  0
BLOCK
  8
LAYER_1
  2
AIGNBL01010013
 70
64
 10
0
 20
0
 30
0
  3
AIGNBL01010013
  0
POLYLINE
  8
LAYER_1
 40
0.254
 41
0.254
 66
1
 10
0
 20
0
 30
0
 70
1
  0
VERTEX
  8
LAYER_1
 10
261.6904
 20
-30.003
  0
VERTEX
  8
LAYER_1
 10
261.5521
 20
-29.8654
  0
VERTEX
  8
LAYER_1
 10
261.4145
 20
-29.8654
  0
VERTEX
  8
LAYER_1
 10
261.2766
 20
-29.8654
  0
VERTEX
  8
LAYER_1
 10
261.1393
 20
-30.003
  0
VERTEX
  8
LAYER_1
 10
261.2766
 20
-30.2785
  0
VERTEX
  8
LAYER_1
 10
261.4145
 20
-30.2785
  0
VERTEX
  8
LAYER_1
 10
261.5521
 20
-30.2785
  0
SEQEND
  0
POLYLINE
  8
LAYER_1
 40
0.254
 41
0.254
 66
1
 10
0
 20
0
 30
0
  0
VERTEX
  8
LAYER_1
 10
262.9294
 20
-30.9672
  0
VERTEX
  8
LAYER_1
 10
262.5163
 20
-31.1051
  0
VERTEX
  8
LAYER_1
 10
262.3783
 20
-31.5182
  0
SEQEND
  0
ENDBLK
  0
BLOCK
  8
LAYER_1
  2
AIGNBL01010014
 70
64
 10
0
 20
0
 30
0
  3
AIGNBL01010014
  0
POLYLINE
  8
LAYER_1
 40
0.254
 41
0.254
 66
1
 10
0
 20
0
 30
0
 70
1
  0
VERTEX
  8
LAYER_1
 10
360.3821
 20
-192.9436
  0
VERTEX
  8
LAYER_1
 10
360.2442
 20
-192.1173
  0
VERTEX
  8
LAYER_1
 10
359.6935
 20
-191.5663
  0
VERTEX
  8
LAYER_1
 10
358.8676
 20
-191.2908
  0
VERTEX
  8
LAYER_1
 10
358.0407
 20
-191.5663
  0
VERTEX
  8
LAYER_1
 10
357.4896
 20
-192.1173
  0
VERTEX
  8
LAYER_1
 10
357.2148
 20
-192.9436
  0
VERTEX
  8
LAYER_1
 10
357.4896
 20
-193.7701
  0
VERTEX
  8
LAYER_1
 10
358.0407
 20
-194.3208
  0
VERTEX
  8
LAYER_1
 10
358.8676
 20
-194.4588
  0
VERTEX
  8
LAYER_1
 10
359.6935
 20
-194.3208
  0
VERTEX
  8
LAYER_1
 10
360.2442
 20
-193.7701
  0
SEQEND
  0
POLYLINE
  8
LAYER_1
 40
0.254
 41
0.254
 66
1
 10
0
 20
0
 30
0
 70
1
  0
VERTEX
  8
LAYER_1
 10
359.28
 20
-192.9436
  0
VERTEX
  8
LAYER_1
 10
359.1424
 20
-192.5304
  0
VERTEX
  8
LAYER_1
 10
358.8676
 20
-192.3922
  0
VERTEX
  8
LAYER_1
 10
358.4538
 20
-192.5304
  0
VERTEX
  8
LAYER_1
 10
358.3166
 20
-192.9436
  0
VERTEX
  8
LAYER_1
 10
358.4538
 20
-193.2191
  0
VERTEX
  8
LAYER_1
 10
358.8676
 20
-193.3567
  0
VERTEX
  8
LAYER_1
 10
359.1424
 20
-193.2191
  0
SEQEND
  0
POLYLINE
  8
LAYER_1
 40
0.254
 41
0.254
 66
1
 10
0
 20
0
 30
0
 70
1
  0
VERTEX
  8
LAYER_1
 10
303.9135
 20
-192.2549
  0
VERTEX
  8
LAYER_1
 10
303.7763
 20
-191.8418
  0
VERTEX
  8
LAYER_1
 10
303.5004
 20
-191.7042
  0
VERTEX
  8
LAYER_1
 10
303.0869
 20
-191.8418
  0
VERTEX
  8
LAYER_1
 10
302.9494
 20
-192.2549
  0
VERTEX
  8
LAYER_1
 10
303.0869
 20
-192.5304
  0
VERTEX
  8
LAYER_1
 10
303.5004
 20
-192.668
  0
VERTEX
  8
LAYER_1
 10
303.7763
 20
-192.5304
  0
SEQEND
  0
POLYLINE
  8
LAYER_1
 40
0.254
 41
0.254
 66
1
 10
0
 20
0
 30
0
 70
1
  0
VERTEX
  8
LAYER_1
 10
305.016
 20
-192.2549
  0
VERTEX
  8
LAYER_1
 10
304.878
 20
-191.4287
  0
VERTEX
  8
LAYER_1
 10
304.1887
 20
-190.8777
  0
VERTEX
  8
LAYER_1
 10
303.5004
 20
-190.6021
  0
VERTEX
  8
LAYER_1
 10
302.6745
 20
-190.8777
  0
VERTEX
  8
LAYER_1
 10
301.9859
 20
-191.4287
  0
VERTEX
  8
LAYER_1
 10
301.8476
 20
-192.2549
  0
VERTEX
  8
LAYER_1
 10
301.9859
 20
-193.0815
  0
VERTEX
  8
LAYER_1
 10
302.6745
 20
-193.6322
  0
VERTEX
  8
LAYER_1
 10
303.5004
 20
-193.7701
  0
VERTEX
  8
LAYER_1
 10
304.1887
 20
-193.6322
  0
VERTEX
  8
LAYER_1
 10
304.878
 20
-193.0815
  0
SEQEND
  0
POLYLINE
  8
LAYER_1
 40
0.254
 41
0.254
 66
1
 10
0
 20
0
 30
0
 70
1
  0
VERTEX
  8
LAYER_1
 10
360.3821
 20
-148.8704
  0
VERTEX
  8
LAYER_1
 10
360.2442
 20
-148.1818
  0
VERTEX
  8
LAYER_1
 10
359.6935
 20
-147.4931
  0
VERTEX
  8
LAYER_1
 10
358.8676
 20
-147.3555
  0
VERTEX
  8
LAYER_1
 10
358.0407
 20
-147.4931
  0
VERTEX
  8
LAYER_1
 10
357.4896
 20
-148.1818
  0
VERTEX
  8
LAYER_1
 10
357.2148
 20
-148.8704
  0
VERTEX
  8
LAYER_1
 10
357.4896
 20
-149.697
  0
VERTEX
  8
LAYER_1
 10
358.0407
 20
-150.3856
  0
VERTEX
  8
LAYER_1
 10
358.8676
 20
-150.5232
  0
VERTEX
  8
LAYER_1
 10
359.6935
 20
-150.3856
  0
VERTEX
  8
LAYER_1
 10
360.2442
 20
-149.697
  0
SEQEND
  0
POLYLINE
  8
LAYER_1
 40
0.254
 41
0.254
 66
1
 10
0
 20
0
 30
0
 70
1
  0
VERTEX
  8
LAYER_1
 10
359.28
 20
-148.8704
  0
VERTEX
  8
LAYER_1
 10
359.1424
 20
-148.5952
  0
VERTEX
  8
LAYER_1
 10
358.8676
 20
-148.4573
  0
VERTEX
  8
LAYER_1
 10
358.4538
 20
-148.5952
  0
VERTEX
  8
LAYER_1
 10
358.3166
 20
-148.8704
  0
VERTEX
  8
LAYER_1
 10
358.4538
 20
-149.2839
  0
VERTEX
  8
LAYER_1
 10
358.8676
 20
-149.4215
  0
VERTEX
  8
LAYER_1
 10
359.1424
 20
-149.2839
  0
SEQEND
  0
POLYLINE
  8
LAYER_1
 40
0.254
 41
0.254
 66
1
 10
0
 20
0
 30
0
 70
1
  0
VERTEX
  8
LAYER_1
 10
305.016
 20
-148.1818
  0
VERTEX
  8
LAYER_1
 10
304.878
 20
-147.4931
  0
VERTEX
  8
LAYER_1
 10
304.1887
 20
-146.8045
  0
VERTEX
  8
LAYER_1
 10
303.5004
 20
-146.6669
  0
VERTEX
  8
LAYER_1
 10
302.6745
 20
-146.8045
  0
VERTEX
  8
LAYER_1
 10
301.9859
 20
-147.4931
  0
VERTEX
  8
LAYER_1
 10
301.8476
 20
-148.1818
  0
VERTEX
  8
LAYER_1
 10
301.9859
 20
-149.0084
  0
VERTEX
  8
LAYER_1
 10
302.6745
 20
-149.697
  0
VERTEX
  8
LAYER_1
 10
303.5004
 20
-149.8346
  0
VERTEX
  8
LAYER_1
 10
304.1887
 20
-149.697
  0
VERTEX
  8
LAYER_1
 10
304.878
 20
-149.0084
  0
SEQEND
  0
POLYLINE
  8
LAYER_1
 40
0.254
 41
0.254
 66
1
 10
0
 20
0
 30
0
 70
1
  0
VERTEX
  8
LAYER_1
 10
303.9135
 20
-148.1818
  0
VERTEX
  8
LAYER_1
 10
303.7763
 20
-147.9066
  0
VERTEX
  8
LAYER_1
 10
303.5004
 20
-147.7687
  0
VERTEX
  8
LAYER_1
 10
303.0869
 20
-147.9066
  0
VERTEX
  8
LAYER_1
 10
302.9494
 20
-148.1818
  0
VERTEX
  8
LAYER_1
 10
303.0869
 20
-148.5952
  0
VERTEX
  8
LAYER_1
 10
303.5004
 20
-148.7321
  0
VERTEX
  8
LAYER_1
 10
303.7763
 20
-148.5952
  0
SEQEND
  0
POLYLINE
  8
LAYER_1
 40
0.254
 41
0.254
 66
1
 10
0
 20
0
 30
0
  0
VERTEX
  8
LAYER_1
 10
271.3313
 20
-29.0391
  0
VERTEX
  8
LAYER_1
 10
262.2411
 20
-29.0391
  0
SEQEND
  0
POLYLINE
  8
LAYER_1
 40
0.254
 41
0.254
 66
1
 10
0
 20
0
 30
0
 70
1
  0
VERTEX
  8
LAYER_1
 10
272.2948
 20
-30.0032
  0
VERTEX
  8
LAYER_1
 10
272.2948
 20
-29.8653
  0
VERTEX
  8
LAYER_1
 10
272.02
 20
-29.8653
  0
VERTEX
  8
LAYER_1
 10
271.8817
 20
-29.8653
  0
VERTEX
  8
LAYER_1
 10
271.8817
 20
-30.0032
  0
VERTEX
  8
LAYER_1
 10
271.8817
 20
-30.2784
  0
VERTEX
  8
LAYER_1
 10
272.02
 20
-30.2784
  0
VERTEX
  8
LAYER_1
 10
272.2948
 20
-30.2784
  0
SEQEND
  0
POLYLINE
  8
LAYER_1
 40
0.254
 41
0.254
 66
1
 10
0
 20
0
 30
0
  0
VERTEX
  8
LAYER_1
 10
271.1931
 20
-31.5181
  0
VERTEX
  8
LAYER_1
 10
271.0555
 20
-31.105
  0
VERTEX
  8
LAYER_1
 10
270.642
 20
-30.9671
  0
SEQEND
  0
ENDBLK
  0
BLOCK
  8
LAYER_1
  2
AIGNBL01010015
 70
64
 10
0
 20
0
 30
0
  3
AIGNBL01010015
  0
INSERT
  8
LAYER_1
  2
AIGNBL01020016
 10
0
 20
0
 30
0
  0
POLYLINE
  8
LAYER_1
 40
0.05
 41
0.05
 62
39
 66
1
 10
0
 20
0
 30
0
  0
VERTEX
  8
LAYER_1
 10
137.2073
 20
-133.3123
  0
VERTEX
  8
LAYER_1
 10
137.7583
 20
-133.3123
 42
0.1700236799
  0
VERTEX
  8
LAYER_1
 10
137.971
 20
-133.7254
 42
0.1779887956
  0
VERTEX
  8
LAYER_1
 10
138.4789
 20
-133.8633
 42
0.2230142116
  0
VERTEX
  8
LAYER_1
 10
139.0924
 20
-133.6285
 42
0.1694371155
  0
VERTEX
  8
LAYER_1
 10
139.2732
 20
-133.0069
 42
0.1559991883
  0
VERTEX
  8
LAYER_1
 10
139.1184
 20
-132.4232
 42
0.1978547875
  0
VERTEX
  8
LAYER_1
 10
138.7641
 20
-132.2292
 42
0.06236275316
  0
VERTEX
  8
LAYER_1
 10
138.5309
 20
-132.2105
 42
0.1392292302
  0
VERTEX
  8
LAYER_1
 10
138.1237
 20
-132.2877
 42
0.08981794873
  0
VERTEX
  8
LAYER_1
 10
137.8959
 20
-132.486
  0
VERTEX
  8
LAYER_1
 10
137.3449
 20
-132.3481
  0
VERTEX
  8
LAYER_1
 10
137.7583
 20
-130.2822
  0
VERTEX
  8
LAYER_1
 10
139.5487
 20
-130.2822
  0
VERTEX
  8
LAYER_1
 10
139.5487
 20
-130.8329
  0
VERTEX
  8
LAYER_1
 10
138.2058
 20
-130.8329
  0
VERTEX
  8
LAYER_1
 10
138.0104
 20
-131.9778
 42
-0.1919118768
  0
VERTEX
  8
LAYER_1
 10
138.6965
 20
-131.6595
 42
-0.2216518736
  0
VERTEX
  8
LAYER_1
 10
139.4971
 20
-132.0273
 42
-0.1929960539
  0
VERTEX
  8
LAYER_1
 10
139.8243
 20
-132.9725
 42
-0.1674968644
  0
VERTEX
  8
LAYER_1
 10
139.5122
 20
-133.9212
 42
-0.2422627901
  0
VERTEX
  8
LAYER_1
 10
138.4751
 20
-134.414
 42
-0.1800638331
  0
VERTEX
  8
LAYER_1
 10
137.5948
 20
-134.1129
 42
-0.1969910951
  0
VERTEX
  8
LAYER_1
 10
137.2073
 20
-133.3123
  0
SEQEND
  0
INSERT
  8
LAYER_1
  2
AIGNBL01020017
 10
0
 20
0
 30
0
  0
POLYLINE
  8
LAYER_1
 40
0.05
 41
0.05
 62
39
 66
1
 10
0
 20
0
 30
0
  0
VERTEX
  8
LAYER_1
 10
372.7043
 20
-163.5659
  0
VERTEX
  8
LAYER_1
 10
372.7043
 20
-164.0615
 42
0.1375370687
  0
VERTEX
  8
LAYER_1
 10
372.1469
 20
-164.2865
 42
0.1853848488
  0
VERTEX
  8
LAYER_1
 10
371.9728
 20
-164.6869
 42
0.04397560561
  0
VERTEX
  8
LAYER_1
 10
371.9612
 20
-164.8902
 42
0.1375259209
  0
VERTEX
  8
LAYER_1
 10
372.0857
 20
-165.466
 42
0.122876395
  0
VERTEX
  8
LAYER_1
 10
372.2441
 20
-165.6252
 42
0.1390707827
  0
VERTEX
  8
LAYER_1
 10
372.9903
 20
-165.7954
 42
0.1413349618
  0
VERTEX
  8
LAYER_1
 10
373.6867
 20
-165.629
 42
0.1933511323
  0
VERTEX
  8
LAYER_1
 10
373.9009
 20
-165.2771
 42
0.05188428257
  0
VERTEX
  8
LAYER_1
 10
373.9429
 20
-164.8583
 42
0.1732933511
  0
VERTEX
  8
LAYER_1
 10
373.8078
 20
-164.3244
 42
0.08254013358
  0
VERTEX
  8
LAYER_1
 10
373.4473
 20
-164.0615
  0
VERTEX
  8
LAYER_1
 10
373.4473
 20
-163.5659
  0
VERTEX
  8
LAYER_1
 10
375.6768
 20
-164.0615
  0
VERTEX
  8
LAYER_1
 10
375.6768
 20
-166.0432
  0
VERTEX
  8
LAYER_1
 10
375.1815
 20
-166.0432
  0
VERTEX
  8
LAYER_1
 10
375.1815
 20
-164.4557
  0
VERTEX
  8
LAYER_1
 10
374.1556
 20
-164.1696
 42
-0.1601501002
  0
VERTEX
  8
LAYER_1
 10
374.4381
 20
-164.9706
 42
-0.2126104478
  0
VERTEX
  8
LAYER_1
 10
374.0398
 20
-165.9077
 42
-0.2016065819
  0
VERTEX
  8
LAYER_1
 10
373.0222
 20
-166.2907
 42
-0.1640354163
  0
VERTEX
  8
LAYER_1
 10
371.9963
 20
-165.9614
 42
-0.2471403091
  0
VERTEX
  8
LAYER_1
 10
371.4656
 20
-164.886
 42
-0.1897593908
  0
VERTEX
  8
LAYER_1
 10
371.8022
 20
-163.9685
 42
-0.187947901
  0
VERTEX
  8
LAYER_1
 10
372.7043
 20
-163.5659
  0
SEQEND
  0
INSERT
  8
LAYER_1
  2
AIGNBL01020018
 10
0
 20
0
 30
0
  0
POLYLINE
  8
LAYER_1
 40
0.05
 41
0.05
 62
39
 66
1
 10
0
 20
0
 30
0
 70
1
  0
VERTEX
  8
LAYER_1
 10
371.4658
 20
-171.9291
  0
VERTEX
  8
LAYER_1
 10
371.4658
 20
-171.4335
  0
VERTEX
  8
LAYER_1
 10
374.7436
 20
-171.4335
 42
-0.05076584496
  0
VERTEX
  8
LAYER_1
 10
374.392
 20
-170.9649
 42
-0.04530271924
  0
VERTEX
  8
LAYER_1
 10
374.1245
 20
-170.4426
  0
VERTEX
  8
LAYER_1
 10
374.6282
 20
-170.4426
 42
0.07523871409
  0
VERTEX
  8
LAYER_1
 10
375.1153
 20
-171.1706
 42
0.09338825761
  0
VERTEX
  8
LAYER_1
 10
375.6769
 20
-171.6111
  0
VERTEX
  8
LAYER_1
 10
375.6769
 20
-171.9291
  0
SEQEND
  0
POLYLINE
  8
LAYER_1
 40
0.05
 41
0.05
 62
39
 66
1
 10
0
 20
0
 30
0
 70
1
  0
VERTEX
  8
LAYER_1
 10
232.4077
 20
-134.603
  0
VERTEX
  8
LAYER_1
 10
231.8567
 20
-134.603
  0
VERTEX
  8
LAYER_1
 10
231.8567
 20
-131.3834
 42
-0.05339128478
  0
VERTEX
  8
LAYER_1
 10
231.3983
 20
-131.732
 42
-0.05148320268
  0
VERTEX
  8
LAYER_1
 10
230.8925
 20
-131.9924
  0
VERTEX
  8
LAYER_1
 10
230.8925
 20
-131.5042
 42
0.0743832499
  0
VERTEX
  8
LAYER_1
 10
231.6159
 20
-131.0219
 42
0.09748076304
  0
VERTEX
  8
LAYER_1
 10
232.0525
 20
-130.4709
  0
VERTEX
  8
LAYER_1
 10
232.4077
 20
-130.4709
  0
SEQEND
  0
INSERT
  8
LAYER_1
  2
AIGNBL01020019
 10
0
 20
0
 30
0
  0
INSERT
  8
LAYER_1
  2
AIGNBL0102001A
 10
0
 20
0
 30
0
  0
POLYLINE
  8
LAYER_1
 40
0.05
 41
0.05
 62
39
 66
1
 10
0
 20
0
 30
0
 70
1
  0
VERTEX
  8
LAYER_1
 10
241.9799
 20
-134.603
  0
VERTEX
  8
LAYER_1
 10
241.4288
 20
-134.603
  0
VERTEX
  8
LAYER_1
 10
241.4288
 20
-131.3834
 42
-0.05342438832
  0
VERTEX
  8
LAYER_1
 10
240.9704
 20
-131.732
 42
-0.05148320268
  0
VERTEX
  8
LAYER_1
 10
240.4646
 20
-131.9924
  0
VERTEX
  8
LAYER_1
 10
240.4646
 20
-131.5042
 42
0.07442649016
  0
VERTEX
  8
LAYER_1
 10
241.188
 20
-131.0219
 42
0.09748076304
  0
VERTEX
  8
LAYER_1
 10
241.6246
 20
-130.4709
  0
VERTEX
  8
LAYER_1
 10
241.9799
 20
-130.4709
  0
SEQEND
  0
INSERT
  8
LAYER_1
  2
AIGNBL0102001B
 10
0
 20
0
 30
0
  0
POLYLINE
  8
LAYER_1
 40
0.05
 41
0.05
 62
39
 66
1
 10
0
 20
0
 30
0
  0
VERTEX
  8
LAYER_1
 10
331.8017
 20
-133.2773
  0
VERTEX
  8
LAYER_1
 10
332.3527
 20
-133.2773
 42
0.1701034942
  0
VERTEX
  8
LAYER_1
 10
332.5654
 20
-133.6904
 42
0.178142718
  0
VERTEX
  8
LAYER_1
 10
333.0733
 20
-133.8284
 42
0.2230142116
  0
VERTEX
  8
LAYER_1
 10
333.6868
 20
-133.5936
 42
0.1693549142
  0
VERTEX
  8
LAYER_1
 10
333.8676
 20
-132.972
 42
0.1560334412
  0
VERTEX
  8
LAYER_1
 10
333.7128
 20
-132.3883
 42
0.1978547875
  0
VERTEX
  8
LAYER_1
 10
333.3585
 20
-132.1943
 42
0.06236275316
  0
VERTEX
  8
LAYER_1
 10
333.1253
 20
-132.1756
 42
0.1389877019
  0
VERTEX
  8
LAYER_1
 10
332.7181
 20
-132.2528
 42
0.09045369239
  0
VERTEX
  8
LAYER_1
 10
332.4903
 20
-132.4511
  0
VERTEX
  8
LAYER_1
 10
331.9393
 20
-132.3132
  0
VERTEX
  8
LAYER_1
 10
332.3527
 20
-130.2473
  0
VERTEX
  8
LAYER_1
 10
334.1431
 20
-130.2473
  0
VERTEX
  8
LAYER_1
 10
334.1431
 20
-130.798
  0
VERTEX
  8
LAYER_1
 10
332.8002
 20
-130.798
  0
VERTEX
  8
LAYER_1
 10
332.6047
 20
-131.9429
 42
-0.1919489698
  0
VERTEX
  8
LAYER_1
 10
333.2909
 20
-131.6245
 42
-0.2216630519
  0
VERTEX
  8
LAYER_1
 10
334.0915
 20
-131.9924
 42
-0.1930172082
  0
VERTEX
  8
LAYER_1
 10
334.4186
 20
-132.9376
 42
-0.1674247618
  0
VERTEX
  8
LAYER_1
 10
334.1066
 20
-133.8863
 42
-0.2422627901
  0
VERTEX
  8
LAYER_1
 10
333.0695
 20
-134.3791
 42
-0.1801537912
  0
VERTEX
  8
LAYER_1
 10
332.1892
 20
-134.0779
 42
-0.197082256
  0
VERTEX
  8
LAYER_1
 10
331.8017
 20
-133.2773
  0
SEQEND
  0
INSERT
  8
LAYER_1
  2
AIGNBL0102001C
 10
0
 20
0
 30
0
  0
ENDBLK
  0
BLOCK
  8
LAYER_1
  2
AIGNBL0101001D
 70
64
 10
0
 20
0
 30
0
  3
AIGNBL0101001D
  0
POLYLINE
  8
LAYER_1
 40
0.05
 41
0.05
 62
39
 66
1
 10
0
 20
0
 30
0
  0
VERTEX
  8
LAYER_1
 10
178.3752
 20
-163.5659
  0
VERTEX
  8
LAYER_1
 10
178.3752
 20
-164.0615
 42
0.1375146595
  0
VERTEX
  8
LAYER_1
 10
177.8179
 20
-164.2865
 42
0.1853848488
  0
VERTEX
  8
LAYER_1
 10
177.6438
 20
-164.6869
 42
0.04397560561
  0
VERTEX
  8
LAYER_1
 10
177.6322
 20
-164.8902
 42
0.1373611173
  0
VERTEX
  8
LAYER_1
 10
177.7566
 20
-165.466
 42
0.1228360085
  0
VERTEX
  8
LAYER_1
 10
177.9147
 20
-165.6252
 42
0.1388650317
  0
VERTEX
  8
LAYER_1
 10
178.6613
 20
-165.7954
 42
0.1413808277
  0
VERTEX
  8
LAYER_1
 10
179.3576
 20
-165.629
 42
0.19341903
  0
VERTEX
  8
LAYER_1
 10
179.5718
 20
-165.2771
 42
0.05189329012
  0
VERTEX
  8
LAYER_1
 10
179.6139
 20
-164.8583
 42
0.1733142113
  0
VERTEX
  8
LAYER_1
 10
179.4787
 20
-164.3244
 42
0.08251575709
  0
VERTEX
  8
LAYER_1
 10
179.1183
 20
-164.0615
  0
VERTEX
  8
LAYER_1
 10
179.1183
 20
-163.5659
  0
VERTEX
  8
LAYER_1
 10
181.3477
 20
-164.0615
  0
VERTEX
  8
LAYER_1
 10
181.3477
 20
-166.0432
  0
VERTEX
  8
LAYER_1
 10
180.8525
 20
-166.0432
  0
VERTEX
  8
LAYER_1
 10
180.8525
 20
-164.4557
  0
VERTEX
  8
LAYER_1
 10
179.8266
 20
-164.1696
 42
-0.1601501002
  0
VERTEX
  8
LAYER_1
 10
180.1091
 20
-164.9706
 42
-0.2126199042
  0
VERTEX
  8
LAYER_1
 10
179.7107
 20
-165.9077
 42
-0.2016624742
  0
VERTEX
  8
LAYER_1
 10
178.6932
 20
-166.2907
 42
-0.1640448099
  0
VERTEX
  8
LAYER_1
 10
177.6673
 20
-165.9614
 42
-0.2472071517
  0
VERTEX
  8
LAYER_1
 10
177.1366
 20
-164.886
 42
-0.1897593908
  0
VERTEX
  8
LAYER_1
 10
177.4732
 20
-163.9685
 42
-0.1879560889
  0
VERTEX
  8
LAYER_1
 10
178.3752
 20
-163.5659
  0
SEQEND
  0
INSERT
  8
LAYER_1
  2
AIGNBL0102001E
 10
0
 20
0
 30
0
  0
POLYLINE
  8
LAYER_1
 40
0.05
 41
0.05
 62
39
 66
1
 10
0
 20
0
 30
0
 70
1
  0
VERTEX
  8
LAYER_1
 10
177.1367
 20
-171.9291
  0
VERTEX
  8
LAYER_1
 10
177.1367
 20
-171.4335
  0
VERTEX
  8
LAYER_1
 10
180.4145
 20
-171.4335
 42
-0.05065593093
  0
VERTEX
  8
LAYER_1
 10
180.0628
 20
-170.9649
 42
-0.04522269326
  0
VERTEX
  8
LAYER_1
 10
179.7954
 20
-170.4426
  0
VERTEX
  8
LAYER_1
 10
180.2991
 20
-170.4426
 42
0.07523871409
  0
VERTEX
  8
LAYER_1
 10
180.7862
 20
-171.1706
 42
0.09346076965
  0
VERTEX
  8
LAYER_1
 10
181.3478
 20
-171.6111
  0
VERTEX
  8
LAYER_1
 10
181.3478
 20
-171.9291
  0
SEQEND
  0
ENDBLK
  0
ENDSEC
  0
SECTION
  2
ENTITIES
  0
INSERT
  8
LAYER_1
  2
AIGNBL01010002
 10
0
 20
0
 30
0
  0
POLYLINE
  8
LAYER_1
 40
0.05
 41
0.05
 66
1
 10
0
 20
0
 30
0
 70
1
  0
VERTEX
  8
LAYER_1
 10
287.3073
 20
-136.3372
  0
VERTEX
  8
LAYER_1
 10
287.3073
 20
-137.0259
  0
VERTEX
  8
LAYER_1
 10
289.0977
 20
-136.7504
  0
SEQEND
  0
POLYLINE
  8
LAYER_1
 40
0.05
 41
0.05
 66
1
 10
0
 20
0
 30
0
 70
1
  0
VERTEX
  8
LAYER_1
 10
187.3165
 20
-136.3372
  0
VERTEX
  8
LAYER_1
 10
187.3165
 20
-137.0259
  0
VERTEX
  8
LAYER_1
 10
185.5261
 20
-136.7504
  0
SEQEND
  0
INSERT
  8
LAYER_1
  2
AIGNBL01010003
 10
0
 20
0
 30
0
  0
POLYLINE
  8
LAYER_1
 40
0.05
 41
0.05
 66
1
 10
0
 20
0
 30
0
 70
1
  0
VERTEX
  8
LAYER_1
 10
174.5078
 20
-195.4227
  0
VERTEX
  8
LAYER_1
 10
175.0588
 20
-195.4227
  0
VERTEX
  8
LAYER_1
 10
174.7833
 20
-197.2131
  0
SEQEND
  0
POLYLINE
  8
LAYER_1
 40
0.05
 41
0.05
 66
1
 10
0
 20
0
 30
0
 70
1
  0
VERTEX
  8
LAYER_1
 10
174.5078
 20
-145.1519
  0
VERTEX
  8
LAYER_1
 10
175.0588
 20
-145.1519
  0
VERTEX
  8
LAYER_1
 10
174.7833
 20
-143.3615
  0
SEQEND
  0
INSERT
  8
LAYER_1
  2
AIGNBL01010004
 10
0
 20
0
 30
0
  0
POLYLINE
  8
LAYER_1
 40
0.05
 41
0.05
 66
1
 10
0
 20
0
 30
0
 70
1
  0
VERTEX
  8
LAYER_1
 10
168.0351
 20
-136.475
  0
VERTEX
  8
LAYER_1
 10
168.0351
 20
-137.1636
  0
VERTEX
  8
LAYER_1
 10
169.8252
 20
-136.7505
  0
SEQEND
  0
POLYLINE
  8
LAYER_1
 40
0.05
 41
0.05
 66
1
 10
0
 20
0
 30
0
 70
1
  0
VERTEX
  8
LAYER_1
 10
107.0209
 20
-136.475
  0
VERTEX
  8
LAYER_1
 10
107.0209
 20
-137.1636
  0
VERTEX
  8
LAYER_1
 10
105.2309
 20
-136.7505
  0
SEQEND
  0
INSERT
  8
LAYER_1
  2
AIGNBL01010005
 10
0
 20
0
 30
0
  0
POLYLINE
  8
LAYER_1
 40
0.254
 41
0.254
 62
41
 66
1
 10
0
 20
0
 30
0
 70
1
  0
VERTEX
  8
LAYER_1
 10
162.8009
 20
-170.2184
  0
VERTEX
  8
LAYER_1
 10
162.5253
 20
-168.2897
  0
VERTEX
  8
LAYER_1
 10
161.6991
 20
-166.6376
  0
VERTEX
  8
LAYER_1
 10
160.5977
 20
-165.1224
  0
VERTEX
  8
LAYER_1
 10
159.0822
 20
-163.8827
  0
VERTEX
  8
LAYER_1
 10
157.2918
 20
-163.1941
  0
VERTEX
  8
LAYER_1
 10
155.3634
 20
-162.9189
  0
VERTEX
  8
LAYER_1
 10
153.5731
 20
-163.1941
  0
VERTEX
  8
LAYER_1
 10
151.7827
 20
-163.8827
  0
VERTEX
  8
LAYER_1
 10
150.2682
 20
-165.1224
  0
VERTEX
  8
LAYER_1
 10
149.0281
 20
-166.6376
  0
VERTEX
  8
LAYER_1
 10
148.3395
 20
-168.2897
  0
VERTEX
  8
LAYER_1
 10
148.064
 20
-170.2184
  0
VERTEX
  8
LAYER_1
 10
148.3395
 20
-172.1467
  0
VERTEX
  8
LAYER_1
 10
149.0281
 20
-173.9371
  0
VERTEX
  8
LAYER_1
 10
150.2682
 20
-175.452
  0
VERTEX
  8
LAYER_1
 10
151.7827
 20
-176.5541
  0
VERTEX
  8
LAYER_1
 10
153.5731
 20
-177.2424
  0
VERTEX
  8
LAYER_1
 10
155.3634
 20
-177.5179
  0
VERTEX
  8
LAYER_1
 10
157.2918
 20
-177.2424
  0
VERTEX
  8
LAYER_1
 10
159.0822
 20
-176.5541
  0
VERTEX
  8
LAYER_1
 10
160.5977
 20
-175.452
  0
VERTEX
  8
LAYER_1
 10
161.6991
 20
-173.9371
  0
VERTEX
  8
LAYER_1
 10
162.5253
 20
-172.1467
  0
SEQEND
  0
INSERT
  8
LAYER_1
  2
AIGNBL01010006
 10
0
 20
0
 30
0
  0
POLYLINE
  8
LAYER_1
 40
0.254
 41
0.254
 62
41
 66
1
 10
0
 20
0
 30
0
 70
1
  0
VERTEX
  8
LAYER_1
 10
126.8538
 20
-170.2184
  0
VERTEX
  8
LAYER_1
 10
126.7165
 20
-168.2897
  0
VERTEX
  8
LAYER_1
 10
125.8903
 20
-166.6376
  0
VERTEX
  8
LAYER_1
 10
124.7879
 20
-165.1224
  0
VERTEX
  8
LAYER_1
 10
123.2734
 20
-163.8827
  0
VERTEX
  8
LAYER_1
 10
121.4823
 20
-163.1941
  0
VERTEX
  8
LAYER_1
 10
119.5546
 20
-162.9189
  0
VERTEX
  8
LAYER_1
 10
117.7636
 20
-163.1941
  0
VERTEX
  8
LAYER_1
 10
115.9732
 20
-163.8827
  0
VERTEX
  8
LAYER_1
 10
114.4583
 20
-165.1224
  0
VERTEX
  8
LAYER_1
 10
113.2186
 20
-166.6376
  0
VERTEX
  8
LAYER_1
 10
112.53
 20
-168.2897
  0
VERTEX
  8
LAYER_1
 10
112.2545
 20
-170.2184
  0
VERTEX
  8
LAYER_1
 10
112.53
 20
-172.1467
  0
VERTEX
  8
LAYER_1
 10
113.2186
 20
-173.9371
  0
VERTEX
  8
LAYER_1
 10
114.4583
 20
-175.452
  0
VERTEX
  8
LAYER_1
 10
115.9732
 20
-176.5541
  0
VERTEX
  8
LAYER_1
 10
117.7636
 20
-177.2424
  0
VERTEX
  8
LAYER_1
 10
119.5546
 20
-177.5179
  0
VERTEX
  8
LAYER_1
 10
121.4823
 20
-177.2424
  0
VERTEX
  8
LAYER_1
 10
123.2734
 20
-176.5541
  0
VERTEX
  8
LAYER_1
 10
124.7879
 20
-175.452
  0
VERTEX
  8
LAYER_1
 10
125.8903
 20
-173.9371
  0
VERTEX
  8
LAYER_1
 10
126.7165
 20
-172.1467
  0
SEQEND
  0
INSERT
  8
LAYER_1
  2
AIGNBL01010007
 10
0
 20
0
 30
0
  0
POLYLINE
  8
LAYER_1
 40
0.05
 41
0.05
 66
1
 10
0
 20
0
 30
0
 70
1
  0
VERTEX
  8
LAYER_1
 10
362.1725
 20
-136.475
  0
VERTEX
  8
LAYER_1
 10
362.1725
 20
-137.1636
  0
VERTEX
  8
LAYER_1
 10
363.9636
 20
-136.7505
  0
SEQEND
  0
POLYLINE
  8
LAYER_1
 40
0.05
 41
0.05
 66
1
 10
0
 20
0
 30
0
 70
1
  0
VERTEX
  8
LAYER_1
 10
301.1589
 20
-136.475
  0
VERTEX
  8
LAYER_1
 10
301.1589
 20
-137.1636
  0
VERTEX
  8
LAYER_1
 10
299.3685
 20
-136.7505
  0
SEQEND
  0
INSERT
  8
LAYER_1
  2
AIGNBL01010008
 10
0
 20
0
 30
0
  0
POLYLINE
  8
LAYER_1
 40
0.254
 41
0.254
 62
41
 66
1
 10
0
 20
0
 30
0
 70
1
  0
VERTEX
  8
LAYER_1
 10
321.1295
 20
-170.2184
  0
VERTEX
  8
LAYER_1
 10
320.8539
 20
-168.2897
  0
VERTEX
  8
LAYER_1
 10
320.0277
 20
-166.6376
  0
VERTEX
  8
LAYER_1
 10
318.926
 20
-165.1224
  0
VERTEX
  8
LAYER_1
 10
317.4107
 20
-163.8827
  0
VERTEX
  8
LAYER_1
 10
315.6204
 20
-163.1941
  0
VERTEX
  8
LAYER_1
 10
313.692
 20
-162.9189
  0
VERTEX
  8
LAYER_1
 10
311.9024
 20
-163.1941
  0
VERTEX
  8
LAYER_1
 10
310.1116
 20
-163.8827
  0
VERTEX
  8
LAYER_1
 10
308.596
 20
-165.1224
  0
VERTEX
  8
LAYER_1
 10
307.4943
 20
-166.6376
  0
VERTEX
  8
LAYER_1
 10
306.6684
 20
-168.2897
  0
VERTEX
  8
LAYER_1
 10
306.3926
 20
-170.2184
  0
VERTEX
  8
LAYER_1
 10
306.6684
 20
-172.1467
  0
VERTEX
  8
LAYER_1
 10
307.4943
 20
-173.9371
  0
VERTEX
  8
LAYER_1
 10
308.596
 20
-175.452
  0
VERTEX
  8
LAYER_1
 10
310.1116
 20
-176.5541
  0
VERTEX
  8
LAYER_1
 10
311.9024
 20
-177.2424
  0
VERTEX
  8
LAYER_1
 10
313.692
 20
-177.5179
  0
VERTEX
  8
LAYER_1
 10
315.6204
 20
-177.2424
  0
VERTEX
  8
LAYER_1
 10
317.4107
 20
-176.5541
  0
VERTEX
  8
LAYER_1
 10
318.926
 20
-175.452
  0
VERTEX
  8
LAYER_1
 10
320.0277
 20
-173.9371
  0
VERTEX
  8
LAYER_1
 10
320.8539
 20
-172.1467
  0
SEQEND
  0
INSERT
  8
LAYER_1
  2
AIGNBL01010009
 10
0
 20
0
 30
0
  0
POLYLINE
  8
LAYER_1
 40
0.05
 41
0.05
 66
1
 10
0
 20
0
 30
0
 70
1
  0
VERTEX
  8
LAYER_1
 10
368.6463
 20
-195.4227
  0
VERTEX
  8
LAYER_1
 10
369.3343
 20
-195.4227
  0
VERTEX
  8
LAYER_1
 10
368.9211
 20
-197.2131
  0
SEQEND
  0
POLYLINE
  8
LAYER_1
 40
0.05
 41
0.05
 66
1
 10
0
 20
0
 30
0
 70
1
  0
VERTEX
  8
LAYER_1
 10
368.6463
 20
-145.1519
  0
VERTEX
  8
LAYER_1
 10
369.3343
 20
-145.1519
  0
VERTEX
  8
LAYER_1
 10
368.9211
 20
-143.3615
  0
SEQEND
  0
INSERT
  8
LAYER_1
  2
AIGNBL0101000A
 10
0
 20
0
 30
0
  0
POLYLINE
  8
LAYER_1
 40
0.254
 41
0.254
 62
41
 66
1
 10
0
 20
0
 30
0
 70
1
  0
VERTEX
  8
LAYER_1
 10
356.9388
 20
-170.2184
  0
VERTEX
  8
LAYER_1
 10
356.664
 20
-168.2897
  0
VERTEX
  8
LAYER_1
 10
355.9747
 20
-166.6376
  0
VERTEX
  8
LAYER_1
 10
354.735
 20
-165.1224
  0
VERTEX
  8
LAYER_1
 10
353.2208
 20
-163.8827
  0
VERTEX
  8
LAYER_1
 10
351.4304
 20
-163.1941
  0
VERTEX
  8
LAYER_1
 10
349.6397
 20
-162.9189
  0
VERTEX
  8
LAYER_1
 10
347.711
 20
-163.1941
  0
VERTEX
  8
LAYER_1
 10
345.9206
 20
-163.8827
  0
VERTEX
  8
LAYER_1
 10
344.4054
 20
-165.1224
  0
VERTEX
  8
LAYER_1
 10
343.3044
 20
-166.6376
  0
VERTEX
  8
LAYER_1
 10
342.4775
 20
-168.2897
  0
VERTEX
  8
LAYER_1
 10
342.2026
 20
-170.2184
  0
VERTEX
  8
LAYER_1
 10
342.4775
 20
-172.1467
  0
VERTEX
  8
LAYER_1
 10
343.3044
 20
-173.9371
  0
VERTEX
  8
LAYER_1
 10
344.4054
 20
-175.452
  0
VERTEX
  8
LAYER_1
 10
345.9206
 20
-176.5541
  0
VERTEX
  8
LAYER_1
 10
347.711
 20
-177.2424
  0
VERTEX
  8
LAYER_1
 10
349.6397
 20
-177.5179
  0
VERTEX
  8
LAYER_1
 10
351.4304
 20
-177.2424
  0
VERTEX
  8
LAYER_1
 10
353.2208
 20
-176.5541
  0
VERTEX
  8
LAYER_1
 10
354.735
 20
-175.452
  0
VERTEX
  8
LAYER_1
 10
355.9747
 20
-173.9371
  0
VERTEX
  8
LAYER_1
 10
356.664
 20
-172.1467
  0
SEQEND
  0
INSERT
  8
LAYER_1
  2
AIGNBL0101000B
 10
0
 20
0
 30
0
  0
INSERT
  8
LAYER_1
  2
AIGNBL0101000C
 10
0
 20
0
 30
0
  0
INSERT
  8
LAYER_1
  2
AIGNBL0101000D
 10
0
 20
0
 30
0
  0
POLYLINE
  8
LAYER_1
 40
0.254
 41
0.254
 62
254
 66
1
 10
0
 20
0
 30
0
  0
VERTEX
  8
LAYER_1
 10
270.6422
 20
-45.4286
  0
VERTEX
  8
LAYER_1
 10
262.9295
 20
-45.4286
  0
SEQEND
  0
INSERT
  8
LAYER_1
  2
AIGNBL0101000E
 10
0
 20
0
 30
0
  0
POLYLINE
  8
LAYER_1
 40
0.254
 41
0.254
 62
254
 66
1
 10
0
 20
0
 30
0
  0
VERTEX
  8
LAYER_1
 10
271.6063
 20
-44.3268
  0
VERTEX
  8
LAYER_1
 10
271.6063
 20
-31.5182
  0
SEQEND
  0
POLYLINE
  8
LAYER_1
 40
0.254
 41
0.254
 66
1
 10
0
 20
0
 30
0
  0
VERTEX
  8
LAYER_1
 10
262.3785
 20
-44.3268
  0
VERTEX
  8
LAYER_1
 10
262.3785
 20
-31.5182
  0
SEQEND
  0
POLYLINE
  8
LAYER_1
 40
0.254
 41
0.254
 62
254
 66
1
 10
0
 20
0
 30
0
  0
VERTEX
  8
LAYER_1
 10
261.8275
 20
-44.3268
  0
VERTEX
  8
LAYER_1
 10
261.8275
 20
-31.5182
  0
SEQEND
  0
INSERT
  8
LAYER_1
  2
AIGNBL0101000F
 10
0
 20
0
 30
0
  0
INSERT
  8
LAYER_1
  2
AIGNBL01010010
 10
0
 20
0
 30
0
  0
INSERT
  8
LAYER_1
  2
AIGNBL01010011
 10
0
 20
0
 30
0
  0
POLYLINE
  8
LAYER_1
 40
0.254
 41
0.254
 62
254
 66
1
 10
0
 20
0
 30
0
  0
VERTEX
  8
LAYER_1
 10
270.6422
 20
-44.4646
  0
VERTEX
  8
LAYER_1
 10
270.7804
 20
-44.4646
  0
VERTEX
  8
LAYER_1
 10
270.7804
 20
-44.327
  0
SEQEND
  0
INSERT
  8
LAYER_1
  2
AIGNBL01010012
 10
0
 20
0
 30
0
  0
POLYLINE
  8
LAYER_1
 40
0.254
 41
0.254
 62
254
 66
1
 10
0
 20
0
 30
0
  0
VERTEX
  8
LAYER_1
 10
270.6422
 20
-30.4163
  0
VERTEX
  8
LAYER_1
 10
262.9295
 20
-30.4163
  0
VERTEX
  8
LAYER_1
 10
262.103
 20
-30.8294
  0
VERTEX
  8
LAYER_1
 10
261.8275
 20
-31.518
  0
SEQEND
  0
INSERT
  8
LAYER_1
  2
AIGNBL01010013
 10
0
 20
0
 30
0
  0
POLYLINE
  8
LAYER_1
 40
0.254
 41
0.254
 62
254
 66
1
 10
0
 20
0
 30
0
  0
VERTEX
  8
LAYER_1
 10
271.6063
 20
-31.5181
  0
VERTEX
  8
LAYER_1
 10
271.3314
 20
-30.8295
  0
VERTEX
  8
LAYER_1
 10
270.6421
 20
-30.4164
  0
SEQEND
  0
INSERT
  8
LAYER_1
  2
AIGNBL01010014
 10
0
 20
0
 30
0
  0
INSERT
  8
LAYER_1
  2
AIGNBL01010015
 10
0
 20
0
 30
0
  0
POLYLINE
  8
LAYER_1
 40
0.05
 41
0.05
 62
255
 66
1
 10
0
 20
0
 30
0
 70
1
  0
VERTEX
  8
LAYER_1
 10
181.9094
 20
-162.8033
  0
VERTEX
  8
LAYER_1
 10
175.3792
 20
-162.8033
  0
VERTEX
  8
LAYER_1
 10
175.3792
 20
-178.47
  0
VERTEX
  8
LAYER_1
 10
181.9094
 20
-178.47
  0
SEQEND
  0
INSERT
  8
LAYER_1
  2
AIGNBL0101001D
 10
0
 20
0
 30
0
  0
TEXT
  8
LAYER_1
 10
33.3816
 20
-29.501
 11
33.3816
 21
-29.501
 40
13.6043
 41
0.5
  1
WLA-218SUB
  0
ENDSEC
  0
EOF
